  0
SECTION
  2
HEADER
  9
$ACADVER
  1
AC1009
  9
$INSBASE
 10
0.0
 20
0.0
 30
0.0
  9
$EXTMIN
 10
2123.6971008767068
 20
1440.019987743661
 30
0.0
  9
$EXTMAX
 10
2173.4933642356182
 20
1458.6238603480499
 30
0.0
  9
$LIMMIN
 10
0.0
 20
0.0
  9
$LIMMAX
 10
420.0
 20
297.0
  9
$ORTHOMODE
 70
     0
  9
$REGENMODE
 70
     1
  9
$FILLMODE
 70
     1
  9
$QTEXTMODE
 70
     0
  9
$MIRRTEXT
 70
     0
  9
$DRAGMODE
 70
     2
  9
$LTSCALE
 40
1.0
  9
$OSMODE
 70
   903
  9
$ATTMODE
 70
     1
  9
$TEXTSIZE
 40
2.5
  9
$TRACEWID
 40
1.0
  9
$TEXTSTYLE
  7
STANDARD
  9
$CLAYER
  8
0
  9
$CELTYPE
  6
BYLAYER
  9
$CECOLOR
 62
   256
  9
$DIMSCALE
 40
1.0
  9
$DIMASZ
 40
2.5
  9
$DIMEXO
 40
0.625
  9
$DIMDLI
 40
3.75
  9
$DIMRND
 40
0.0
  9
$DIMDLE
 40
0.0
  9
$DIMEXE
 40
1.25
  9
$DIMTP
 40
0.0
  9
$DIMTM
 40
0.0
  9
$DIMTXT
 40
2.5
  9
$DIMCEN
 40
2.5
  9
$DIMTSZ
 40
0.0
  9
$DIMTOL
 70
     0
  9
$DIMLIM
 70
     0
  9
$DIMTIH
 70
     0
  9
$DIMTOH
 70
     0
  9
$DIMSE1
 70
     0
  9
$DIMSE2
 70
     0
  9
$DIMTAD
 70
     1
  9
$DIMZIN
 70
     8
  9
$DIMBLK
  1

  9
$DIMASO
 70
     1
  9
$DIMSHO
 70
     1
  9
$DIMPOST
  1

  9
$DIMAPOST
  1

  9
$DIMALT
 70
     0
  9
$DIMALTD
 70
     3
  9
$DIMALTF
 40
0.03937007874016
  9
$DIMLFAC
 40
1.0
  9
$DIMTOFL
 70
     1
  9
$DIMTVP
 40
0.0
  9
$DIMTIX
 70
     0
  9
$DIMSOXD
 70
     0
  9
$DIMSAH
 70
     0
  9
$DIMBLK1
  1

  9
$DIMBLK2
  1

  9
$DIMSTYLE
  2
ISO-25
  9
$DIMCLRD
 70
     0
  9
$DIMCLRE
 70
     0
  9
$DIMCLRT
 70
     0
  9
$DIMTFAC
 40
1.0
  9
$DIMGAP
 40
0.625
  9
$LUNITS
 70
     2
  9
$LUPREC
 70
     4
  9
$SKETCHINC
 40
1.0
  9
$FILLETRAD
 40
0.0
  9
$AUNITS
 70
     0
  9
$AUPREC
 70
     0
  9
$MENU
  1
.
  9
$ELEVATION
 40
0.0
  9
$PELEVATION
 40
0.0
  9
$THICKNESS
 40
0.0
  9
$LIMCHECK
 70
     0
  9
$BLIPMODE
 70
     0
  9
$CHAMFERA
 40
0.0
  9
$CHAMFERB
 40
0.0
  9
$SKPOLY
 70
     0
  9
$TDCREATE
 40
2456435.6164714471
  9
$TDUPDATE
 40
2456435.6180741661
  9
$TDINDWG
 40
0.0003983912
  9
$TDUSRTIMER
 40
0.0003983912
  9
$USRTIMER
 70
     1
  9
$ANGBASE
 50
0.0
  9
$ANGDIR
 70
     0
  9
$PDMODE
 70
     0
  9
$PDSIZE
 40
0.0
  9
$PLINEWID
 40
0.0
  9
$COORDS
 70
     1
  9
$SPLFRAME
 70
     0
  9
$SPLINETYPE
 70
     6
  9
$SPLINESEGS
 70
     8
  9
$ATTDIA
 70
     0
  9
$ATTREQ
 70
     1
  9
$HANDLING
 70
     1
  9
$HANDSEED
  5
FB2
  9
$SURFTAB1
 70
     6
  9
$SURFTAB2
 70
     6
  9
$SURFTYPE
 70
     6
  9
$SURFU
 70
     6
  9
$SURFV
 70
     6
  9
$UCSNAME
  2

  9
$UCSORG
 10
0.0
 20
0.0
 30
0.0
  9
$UCSXDIR
 10
1.0
 20
0.0
 30
0.0
  9
$UCSYDIR
 10
0.0
 20
1.0
 30
0.0
  9
$PUCSNAME
  2

  9
$PUCSORG
 10
0.0
 20
0.0
 30
0.0
  9
$PUCSXDIR
 10
1.0
 20
0.0
 30
0.0
  9
$PUCSYDIR
 10
0.0
 20
1.0
 30
0.0
  9
$USERI1
 70
     0
  9
$USERI2
 70
     0
  9
$USERI3
 70
     0
  9
$USERI4
 70
     0
  9
$USERI5
 70
     0
  9
$USERR1
 40
0.0
  9
$USERR2
 40
0.0
  9
$USERR3
 40
0.0
  9
$USERR4
 40
0.0
  9
$USERR5
 40
0.0
  9
$WORLDVIEW
 70
     1
  9
$SHADEDGE
 70
     3
  9
$SHADEDIF
 70
    70
  9
$TILEMODE
 70
     1
  9
$MAXACTVP
 70
    64
  9
$PLIMCHECK
 70
     0
  9
$PEXTMIN
 10
0.0
 20
0.0
 30
0.0
  9
$PEXTMAX
 10
0.0
 20
0.0
 30
0.0
  9
$PLIMMIN
 10
0.0
 20
0.0
  9
$PLIMMAX
 10
12.0
 20
9.0
  9
$UNITMODE
 70
     0
  9
$VISRETAIN
 70
     1
  9
$PLINEGEN
 70
     0
  9
$PSLTSCALE
 70
     1
  0
ENDSEC
  0
SECTION
  2
TABLES
  0
TABLE
  2
VPORT
 70
     1
  0
VPORT
  2
*ACTIVE
 70
     0
 10
0.0
 20
0.0
 11
1.0
 21
1.0
 12
2147.9366141308642
 22
1450.1674691265559
 13
0.0
 23
0.0
 14
10.0
 24
10.0
 15
10.0
 25
10.0
 16
0.0
 26
0.0
 36
1.0
 17
0.0
 27
0.0
 37
0.0
 40
71.95788717934316
 41
1.303738317757009
 42
50.0
 43
0.0
 44
0.0
 50
0.0
 51
0.0
 71
     0
 72
  1000
 73
     1
 74
     3
 75
     0
 76
     0
 77
     0
 78
     0
  0
ENDTAB
  0
TABLE
  2
LTYPE
 70
     1
  0
LTYPE
  2
CONTINUOUS
 70
     0
  3
Solid line
 72
    65
 73
     0
 40
0.0
  0
ENDTAB
  0
TABLE
  2
LAYER
 70
     1
  0
LAYER
  2
0
 70
     0
 62
     7
  6
CONTINUOUS
  0
ENDTAB
  0
TABLE
  2
STYLE
 70
     3
  0
STYLE
  2
STANDARD
 70
     0
 40
0.0
 41
1.0
 50
0.0
 71
     0
 42
2.5
  3
txt
  4

  0
STYLE
  2
ANNOTATIVA
 70
     0
 40
0.0
 41
1.0
 50
0.0
 71
     0
 42
2.5
  3
txt
  4

  0
STYLE
  2
ARCHIVIO
 70
     0
 40
6.0
 41
1.0
 50
0.0
 71
     0
 42
5.0
  3
txt
  4

  0
ENDTAB
  0
TABLE
  2
VIEW
 70
     0
  0
ENDTAB
  0
TABLE
  2
UCS
 70
     0
  0
ENDTAB
  0
TABLE
  2
APPID
 70
    13
  0
APPID
  2
ACAD
 70
     0
  0
APPID
  2
ACAD_PSEXT
 70
     0
  0
APPID
  2
ACADANNOPO
 70
     0
  0
APPID
  2
ACADANNOTATIVE
 70
     0
  0
APPID
  2
ACAD_DSTYLE_DIMJAG
 70
     0
  0
APPID
  2
ACAD_DSTYLE_DIMTALN
 70
     0
  0
APPID
  2
ACAD_MLEADERVER
 70
     0
  0
APPID
  2
ACAD_DSTYLE_DIMJOGGED_JOGA
 70
     0
  0
APPID
  2
ACAD_DSTYLE_DIMEXT_ENABLED
 70
     0
  0
APPID
  2
ACAD_DSTYLE_DIMEXT_LENGTH
 70
     0
  0
APPID
  2
ACAD_DSTYLE_DIM_LINETYPE
 70
     0
  0
APPID
  2
ACAD_DSTYLE_DIM_EXT1_LINETYPE
 70
     0
  0
APPID
  2
ACAD_DSTYLE_DIM_EXT2_LINETYPE
 70
     0
  0
ENDTAB
  0
TABLE
  2
DIMSTYLE
 70
     4
  0
DIMSTYLE
  2
STANDARD
 70
     0
  3

  4

  5

  6

  7

 40
1.0
 41
0.18
 42
0.0625
 43
0.38
 44
0.18
 45
0.0
 46
0.0
 47
0.0
 48
0.0
140
0.18
141
0.09
142
0.0
143
25.399999999999999
144
1.0
145
0.0
146
1.0
147
0.09
 71
     0
 72
     0
 73
     1
 74
     1
 75
     0
 76
     0
 77
     0
 78
     0
170
     0
171
     2
172
     0
173
     0
174
     0
175
     0
176
     0
177
     0
178
     0
  0
DIMSTYLE
  2
ANNOTATIVA
 70
     0
  3

  4

  5

  6

  7

 40
0.0
 41
2.5
 42
0.625
 43
3.75
 44
1.25
 45
0.0
 46
0.0
 47
0.0
 48
0.0
140
2.5
141
2.5
142
0.0
143
0.03937007874016
144
1.0
145
0.0
146
1.0
147
0.625
 71
     0
 72
     0
 73
     0
 74
     0
 75
     0
 76
     0
 77
     1
 78
     8
170
     0
171
     3
172
     1
173
     0
174
     0
175
     0
176
     0
177
     0
178
     0
  0
DIMSTYLE
  2
ISO-25
 70
     0
  3

  4

  5

  6

  7

 40
1.0
 41
2.5
 42
0.625
 43
3.75
 44
1.25
 45
0.0
 46
0.0
 47
0.0
 48
0.0
140
2.5
141
2.5
142
0.0
143
0.03937007874016
144
1.0
145
0.0
146
1.0
147
0.625
 71
     0
 72
     0
 73
     0
 74
     0
 75
     0
 76
     0
 77
     1
 78
     8
170
     0
171
     3
172
     1
173
     0
174
     0
175
     0
176
     0
177
     0
178
     0
  0
DIMSTYLE
  2
ARCHIVIO
 70
     0
  3

  4

  5

  6

  7

 40
1.0
 41
6.5
 42
15.0
 43
3.5
 44
10.0
 45
0.0
 46
0.0
 47
0.0
 48
0.0
140
6.0
141
10.0
142
0.0
143
0.03937007874016
144
1.0
145
0.0
146
1.0
147
1.5
 71
     0
 72
     0
 73
     1
 74
     1
 75
     0
 76
     0
 77
     0
 78
     8
170
     0
171
     3
172
     1
173
     0
174
     0
175
     0
176
   256
177
   256
178
   256
  0
ENDTAB
  0
ENDSEC
  0
SECTION
  2
BLOCKS
  0
BLOCK
  8
0
  2
$MODEL_SPACE
 70
     0
 10
0.0
 20
0.0
 30
0.0
  3
$MODEL_SPACE
  1

  0
ENDBLK
  5
21
  8
0
  0
BLOCK
 67
     1
  8
0
  2
$PAPER_SPACE
 70
     0
 10
0.0
 20
0.0
 30
0.0
  3
$PAPER_SPACE
  1

  0
ENDBLK
  5
D5
 67
     1
  8
0
  0
BLOCK
  8
0
  2
A$C1BE07120
 70
     0
 10
0.0
 20
0.0
 30
0.0
  3
A$C1BE07120
  1

  0
LINE
  5
1ED
  8
0
 10
49.774027796658629
 20
9.7965521578323642
 30
0.0
 11
48.467944771695329
 21
14.8540827414223
 31
0.0
  0
LINE
  5
1EE
  8
0
 10
48.42428895794
 20
11.423735953425529
 30
0.0
 11
47.59653328924469
 21
14.62904490404787
 31
0.0
  0
LINE
  5
1EF
  8
0
 10
17.7499999513966
 20
3.103872533782237
 30
0.0
 11
16.2499999513966
 21
4.603872533782237
 31
0.0
  0
LINE
  5
1F0
  8
0
 10
-0.0000000486033969
 20
6.7338725337823462
 30
0.0
 11
10.33666118115798
 21
6.7338725337823462
 31
0.0
  0
LINE
  5
1F1
  8
0
 10
22.2499999513966
 20
3.103872533782237
 30
0.0
 11
23.7499999513966
 21
4.603872533782237
 31
0.0
  0
LINE
  5
1F2
  8
0
 10
49.04219330476554
 20
8.9215227287623975
 30
0.0
 11
49.096263310308132
 21
8.9215227287623975
 31
0.0
  0
LINE
  5
1F3
  8
0
 10
-0.0000000486033969
 20
10.34977340269233
 30
0.0
 11
1.9999999513966029
 21
10.34977340269233
 31
0.0
  0
LINE
  5
1F4
  8
0
 10
38.259272967436118
 20
10.34977340269233
 30
0.0
 11
45.886657585848297
 21
10.34977340269233
 31
0.0
  0
LINE
  5
1F5
  8
0
 10
40.169508949988078
 20
11.249773402692311
 30
0.0
 11
45.886657585848297
 21
11.249773402692311
 31
0.0
  0
LINE
  5
1F6
  8
0
 10
23.549999951395868
 20
1.8706161599222919
 30
0.0
 11
23.549999951395868
 21
0.1999999293923338
 31
0.0
  0
LINE
  5
1F7
  8
0
 10
22.2499999513966
 20
0.1999999293923338
 30
0.0
 11
22.2499999513966
 21
3.103872533782237
 31
0.0
  0
LINE
  5
1F8
  8
0
 10
17.7499999513966
 20
0.1999999293923338
 30
0.0
 11
17.7499999513966
 21
3.103872533782237
 31
0.0
  0
LINE
  5
1F9
  8
0
 10
4.0499999521489372
 20
17.103872533782241
 30
0.0
 11
7.9499999513973298
 21
17.103872533782241
 31
0.0
  0
LINE
  5
1FA
  8
0
 10
16.449999951397331
 20
0.9447973545123886
 30
0.0
 11
16.449999951397331
 21
0.1999999293923338
 31
0.0
  0
LINE
  5
1FB
  8
0
 10
11.9999999513966
 20
18.603872533782241
 30
0.0
 11
42.045553412426671
 21
18.603872533782241
 31
0.0
  0
LINE
  5
1FC
  8
0
 10
11.9999999513966
 20
17.103872535052339
 30
0.0
 11
11.9999999513966
 21
18.10387253378223
 31
0.0
  0
LINE
  5
1FD
  8
0
 10
7.7499999513966031
 20
17.303872533782279
 30
0.0
 11
7.7499999513966031
 21
18.603872533782241
 31
0.0
  0
LINE
  5
1FE
  8
0
 10
4.2499999513966031
 20
17.303872533782279
 30
0.0
 11
4.2499999513966031
 21
18.603872533782241
 31
0.0
  0
LINE
  5
1FF
  8
0
 10
2.4999999513966031
 20
16.603872533782241
 30
0.0
 11
2.4999999513966031
 21
10.84977340269233
 31
0.0
  0
LINE
  5
200
  8
0
 10
1.599999951398785
 20
17.182414295523809
 30
0.0
 11
1.599999951398785
 21
11.69977340269236
 31
0.0
  0
LINE
  5
201
  8
0
 10
-0.0000000486033969
 20
6.7338725337823462
 30
0.0
 11
-0.0000000486033969
 21
10.34977340269233
 31
0.0
  0
ARC
  5
202
  8
0
 10
43.626769869177217
 20
13.60387253378223
 30
0.0
 40
5.0
 50
14.480000000037149
 51
90.0
  0
ARC
  5
203
  8
0
 10
43.626769869177217
 20
13.60387253378223
 30
0.0
 40
4.0999999999999996
 50
14.480000000037149
 51
93.315912438019524
  0
ARC
  5
204
  8
0
 10
45.886657585848297
 20
6.8497734026923354
 30
0.0
 40
3.5
 50
41.295321089673088
 51
90.0
  0
ARC
  5
205
  8
0
 10
45.886657585848297
 20
6.8497734026923354
 30
0.0
 40
4.4000000000000004
 50
65.223200530693887
 51
90.0
  0
ARC
  5
206
  8
0
 10
47.940171467686007
 20
11.29871493266193
 30
0.0
 40
0.5
 50
245.2232005306939
 51
14.480000000037149
  0
ARC
  5
207
  8
0
 10
25.54999852421679
 20
1.8706051148923271
 30
0.0
 40
1.9999994857700001
 50
103.51608162961389
 51
179.9996835830396
  0
ARC
  5
208
  8
0
 10
49.096263310308132
 20
9.6215227287623293
 30
0.0
 40
0.7000000000000001
 50
270.0
 51
14.480000000037149
  0
ARC
  5
209
  8
0
 10
49.04219330476554
 20
9.6215227287623293
 30
0.0
 40
0.7000000000000001
 50
221.29532108967311
 51
270.0
  0
ARC
  5
20A
  8
0
 10
38.259272003677331
 20
9.8497734026923354
 30
0.0
 40
0.5000000067700001
 50
90.000024487628906
 51
131.67261322247421
  0
ARC
  5
20B
  8
0
 10
2.9999999513966031
 20
16.603872533782241
 30
0.0
 40
0.5
 50
90.0
 51
180.0
  0
ARC
  5
20C
  8
0
 10
1.9999999513966029
 20
10.84977340269233
 30
0.0
 40
0.5
 50
270.0
 51
0.0
  0
ARC
  5
20D
  8
0
 10
23.349999951398789
 20
0.1999999293923338
 30
0.0
 40
0.2
 50
270.0
 51
0.0
  0
ARC
  5
20E
  8
0
 10
16.649999951398058
 20
0.1999999293923338
 30
0.0
 40
0.2
 50
180.0
 51
270.0
  0
ARC
  5
20F
  8
0
 10
7.9499999513973298
 20
17.303872533782279
 30
0.0
 40
0.2
 50
180.0
 51
269.9999997477866
  0
ARC
  5
210
  8
0
 10
4.0499999513958747
 20
17.303872533782279
 30
0.0
 40
0.2
 50
270.00000021469413
 51
0.0
  0
ARC
  5
211
  8
0
 10
17.549999951395868
 20
0.1999999293923338
 30
0.0
 40
0.2
 50
270.0
 51
0.0
  0
ARC
  5
212
  8
0
 10
22.449999951397331
 20
0.1999999293923338
 30
0.0
 40
0.2
 50
180.0
 51
270.0
  0
POLYLINE
  8
0
  5
284
  66
     1
 10
0.000000
 20
0.000000
 30
0.000000
  70
     8
  0
VERTEX
  8
0
  5
285
 10
12.0000
 20
17.1039
 30
0.000000
  70
    32
  0
VERTEX
  8
0
  5
286
 10
12.0025
 20
17.0753
 30
0.000000
  70
    32
  0
VERTEX
  8
0
  5
287
 10
12.0050
 20
17.0467
 30
0.000000
  70
    32
  0
VERTEX
  8
0
  5
288
 10
12.0075
 20
17.0181
 30
0.000000
  70
    32
  0
VERTEX
  8
0
  5
289
 10
12.0101
 20
16.9895
 30
0.000000
  70
    32
  0
VERTEX
  8
0
  5
28A
 10
12.0126
 20
16.9609
 30
0.000000
  70
    32
  0
VERTEX
  8
0
  5
28B
 10
12.0152
 20
16.9324
 30
0.000000
  70
    32
  0
VERTEX
  8
0
  5
28C
 10
12.0177
 20
16.9038
 30
0.000000
  70
    32
  0
VERTEX
  8
0
  5
28D
 10
12.0203
 20
16.8752
 30
0.000000
  70
    32
  0
VERTEX
  8
0
  5
28E
 10
12.0229
 20
16.8466
 30
0.000000
  70
    32
  0
VERTEX
  8
0
  5
28F
 10
12.0255
 20
16.8180
 30
0.000000
  70
    32
  0
VERTEX
  8
0
  5
290
 10
12.0281
 20
16.7894
 30
0.000000
  70
    32
  0
VERTEX
  8
0
  5
291
 10
12.0307
 20
16.7609
 30
0.000000
  70
    32
  0
VERTEX
  8
0
  5
292
 10
12.0333
 20
16.7323
 30
0.000000
  70
    32
  0
VERTEX
  8
0
  5
293
 10
12.0359
 20
16.7037
 30
0.000000
  70
    32
  0
VERTEX
  8
0
  5
294
 10
12.0386
 20
16.6751
 30
0.000000
  70
    32
  0
VERTEX
  8
0
  5
295
 10
12.0412
 20
16.6465
 30
0.000000
  70
    32
  0
VERTEX
  8
0
  5
296
 10
12.0439
 20
16.6180
 30
0.000000
  70
    32
  0
VERTEX
  8
0
  5
297
 10
12.0465
 20
16.5894
 30
0.000000
  70
    32
  0
VERTEX
  8
0
  5
298
 10
12.0492
 20
16.5608
 30
0.000000
  70
    32
  0
VERTEX
  8
0
  5
299
 10
12.0519
 20
16.5322
 30
0.000000
  70
    32
  0
VERTEX
  8
0
  5
29A
 10
12.0546
 20
16.5037
 30
0.000000
  70
    32
  0
VERTEX
  8
0
  5
29B
 10
12.0573
 20
16.4751
 30
0.000000
  70
    32
  0
VERTEX
  8
0
  5
29C
 10
12.0600
 20
16.4465
 30
0.000000
  70
    32
  0
VERTEX
  8
0
  5
29D
 10
12.0627
 20
16.4180
 30
0.000000
  70
    32
  0
VERTEX
  8
0
  5
29E
 10
12.0654
 20
16.3894
 30
0.000000
  70
    32
  0
VERTEX
  8
0
  5
29F
 10
12.0682
 20
16.3608
 30
0.000000
  70
    32
  0
VERTEX
  8
0
  5
2A0
 10
12.0709
 20
16.3323
 30
0.000000
  70
    32
  0
VERTEX
  8
0
  5
2A1
 10
12.0737
 20
16.3037
 30
0.000000
  70
    32
  0
VERTEX
  8
0
  5
2A2
 10
12.0765
 20
16.2751
 30
0.000000
  70
    32
  0
VERTEX
  8
0
  5
2A3
 10
12.0793
 20
16.2466
 30
0.000000
  70
    32
  0
VERTEX
  8
0
  5
2A4
 10
12.0821
 20
16.2180
 30
0.000000
  70
    32
  0
VERTEX
  8
0
  5
2A5
 10
12.0849
 20
16.1894
 30
0.000000
  70
    32
  0
VERTEX
  8
0
  5
2A6
 10
12.0877
 20
16.1609
 30
0.000000
  70
    32
  0
VERTEX
  8
0
  5
2A7
 10
12.0905
 20
16.1323
 30
0.000000
  70
    32
  0
VERTEX
  8
0
  5
2A8
 10
12.0933
 20
16.1038
 30
0.000000
  70
    32
  0
VERTEX
  8
0
  5
2A9
 10
12.0962
 20
16.0752
 30
0.000000
  70
    32
  0
VERTEX
  8
0
  5
2AA
 10
12.0990
 20
16.0466
 30
0.000000
  70
    32
  0
VERTEX
  8
0
  5
2AB
 10
12.1019
 20
16.0181
 30
0.000000
  70
    32
  0
VERTEX
  8
0
  5
2AC
 10
12.1048
 20
15.9895
 30
0.000000
  70
    32
  0
VERTEX
  8
0
  5
2AD
 10
12.1077
 20
15.9610
 30
0.000000
  70
    32
  0
VERTEX
  8
0
  5
2AE
 10
12.1106
 20
15.9324
 30
0.000000
  70
    32
  0
VERTEX
  8
0
  5
2AF
 10
12.1135
 20
15.9039
 30
0.000000
  70
    32
  0
VERTEX
  8
0
  5
2B0
 10
12.1164
 20
15.8753
 30
0.000000
  70
    32
  0
VERTEX
  8
0
  5
2B1
 10
12.1193
 20
15.8468
 30
0.000000
  70
    32
  0
VERTEX
  8
0
  5
2B2
 10
12.1223
 20
15.8182
 30
0.000000
  70
    32
  0
VERTEX
  8
0
  5
2B3
 10
12.1252
 20
15.7897
 30
0.000000
  70
    32
  0
VERTEX
  8
0
  5
2B4
 10
12.1282
 20
15.7611
 30
0.000000
  70
    32
  0
VERTEX
  8
0
  5
2B5
 10
12.1311
 20
15.7326
 30
0.000000
  70
    32
  0
VERTEX
  8
0
  5
2B6
 10
12.1341
 20
15.7040
 30
0.000000
  70
    32
  0
VERTEX
  8
0
  5
2B7
 10
12.1371
 20
15.6755
 30
0.000000
  70
    32
  0
VERTEX
  8
0
  5
2B8
 10
12.1401
 20
15.6470
 30
0.000000
  70
    32
  0
VERTEX
  8
0
  5
2B9
 10
12.1431
 20
15.6184
 30
0.000000
  70
    32
  0
VERTEX
  8
0
  5
2BA
 10
12.1461
 20
15.5899
 30
0.000000
  70
    32
  0
VERTEX
  8
0
  5
2BB
 10
12.1492
 20
15.5613
 30
0.000000
  70
    32
  0
VERTEX
  8
0
  5
2BC
 10
12.1522
 20
15.5328
 30
0.000000
  70
    32
  0
VERTEX
  8
0
  5
2BD
 10
12.1553
 20
15.5043
 30
0.000000
  70
    32
  0
VERTEX
  8
0
  5
2BE
 10
12.1584
 20
15.4757
 30
0.000000
  70
    32
  0
VERTEX
  8
0
  5
2BF
 10
12.1614
 20
15.4472
 30
0.000000
  70
    32
  0
VERTEX
  8
0
  5
2C0
 10
12.1645
 20
15.4187
 30
0.000000
  70
    32
  0
VERTEX
  8
0
  5
2C1
 10
12.1676
 20
15.3901
 30
0.000000
  70
    32
  0
VERTEX
  8
0
  5
2C2
 10
12.1707
 20
15.3616
 30
0.000000
  70
    32
  0
VERTEX
  8
0
  5
2C3
 10
12.1739
 20
15.3331
 30
0.000000
  70
    32
  0
VERTEX
  8
0
  5
2C4
 10
12.1770
 20
15.3046
 30
0.000000
  70
    32
  0
VERTEX
  8
0
  5
2C5
 10
12.1802
 20
15.2760
 30
0.000000
  70
    32
  0
VERTEX
  8
0
  5
2C6
 10
12.1833
 20
15.2475
 30
0.000000
  70
    32
  0
VERTEX
  8
0
  5
2C7
 10
12.1865
 20
15.2190
 30
0.000000
  70
    32
  0
VERTEX
  8
0
  5
2C8
 10
12.1897
 20
15.1905
 30
0.000000
  70
    32
  0
VERTEX
  8
0
  5
2C9
 10
12.1929
 20
15.1619
 30
0.000000
  70
    32
  0
VERTEX
  8
0
  5
2CA
 10
12.1961
 20
15.1334
 30
0.000000
  70
    32
  0
VERTEX
  8
0
  5
2CB
 10
12.1993
 20
15.1049
 30
0.000000
  70
    32
  0
VERTEX
  8
0
  5
2CC
 10
12.2025
 20
15.0764
 30
0.000000
  70
    32
  0
VERTEX
  8
0
  5
2CD
 10
12.2057
 20
15.0479
 30
0.000000
  70
    32
  0
VERTEX
  8
0
  5
2CE
 10
12.2090
 20
15.0193
 30
0.000000
  70
    32
  0
VERTEX
  8
0
  5
2CF
 10
12.2123
 20
14.9908
 30
0.000000
  70
    32
  0
VERTEX
  8
0
  5
2D0
 10
12.2155
 20
14.9623
 30
0.000000
  70
    32
  0
VERTEX
  8
0
  5
2D1
 10
12.2188
 20
14.9338
 30
0.000000
  70
    32
  0
VERTEX
  8
0
  5
2D2
 10
12.2221
 20
14.9053
 30
0.000000
  70
    32
  0
VERTEX
  8
0
  5
2D3
 10
12.2254
 20
14.8768
 30
0.000000
  70
    32
  0
VERTEX
  8
0
  5
2D4
 10
12.2288
 20
14.8483
 30
0.000000
  70
    32
  0
VERTEX
  8
0
  5
2D5
 10
12.2321
 20
14.8198
 30
0.000000
  70
    32
  0
VERTEX
  8
0
  5
2D6
 10
12.2354
 20
14.7913
 30
0.000000
  70
    32
  0
VERTEX
  8
0
  5
2D7
 10
12.2388
 20
14.7628
 30
0.000000
  70
    32
  0
VERTEX
  8
0
  5
2D8
 10
12.2422
 20
14.7343
 30
0.000000
  70
    32
  0
VERTEX
  8
0
  5
2D9
 10
12.2456
 20
14.7058
 30
0.000000
  70
    32
  0
VERTEX
  8
0
  5
2DA
 10
12.2490
 20
14.6773
 30
0.000000
  70
    32
  0
VERTEX
  8
0
  5
2DB
 10
12.2524
 20
14.6488
 30
0.000000
  70
    32
  0
VERTEX
  8
0
  5
2DC
 10
12.2558
 20
14.6203
 30
0.000000
  70
    32
  0
VERTEX
  8
0
  5
2DD
 10
12.2592
 20
14.5918
 30
0.000000
  70
    32
  0
VERTEX
  8
0
  5
2DE
 10
12.2627
 20
14.5633
 30
0.000000
  70
    32
  0
VERTEX
  8
0
  5
2DF
 10
12.2661
 20
14.5348
 30
0.000000
  70
    32
  0
VERTEX
  8
0
  5
2E0
 10
12.2696
 20
14.5063
 30
0.000000
  70
    32
  0
VERTEX
  8
0
  5
2E1
 10
12.2731
 20
14.4778
 30
0.000000
  70
    32
  0
VERTEX
  8
0
  5
2E2
 10
12.2766
 20
14.4494
 30
0.000000
  70
    32
  0
VERTEX
  8
0
  5
2E3
 10
12.2801
 20
14.4209
 30
0.000000
  70
    32
  0
VERTEX
  8
0
  5
2E4
 10
12.2836
 20
14.3924
 30
0.000000
  70
    32
  0
VERTEX
  8
0
  5
2E5
 10
12.2871
 20
14.3639
 30
0.000000
  70
    32
  0
VERTEX
  8
0
  5
2E6
 10
12.2907
 20
14.3354
 30
0.000000
  70
    32
  0
VERTEX
  8
0
  5
2E7
 10
12.2943
 20
14.3069
 30
0.000000
  70
    32
  0
VERTEX
  8
0
  5
2E8
 10
12.2978
 20
14.2785
 30
0.000000
  70
    32
  0
VERTEX
  8
0
  5
2E9
 10
12.3014
 20
14.2500
 30
0.000000
  70
    32
  0
VERTEX
  8
0
  5
2EA
 10
12.3050
 20
14.2215
 30
0.000000
  70
    32
  0
VERTEX
  8
0
  5
2EB
 10
12.3086
 20
14.1931
 30
0.000000
  70
    32
  0
VERTEX
  8
0
  5
2EC
 10
12.3123
 20
14.1646
 30
0.000000
  70
    32
  0
VERTEX
  8
0
  5
2ED
 10
12.3159
 20
14.1361
 30
0.000000
  70
    32
  0
VERTEX
  8
0
  5
2EE
 10
12.3196
 20
14.1077
 30
0.000000
  70
    32
  0
VERTEX
  8
0
  5
2EF
 10
12.3232
 20
14.0792
 30
0.000000
  70
    32
  0
VERTEX
  8
0
  5
2F0
 10
12.3269
 20
14.0507
 30
0.000000
  70
    32
  0
VERTEX
  8
0
  5
2F1
 10
12.3306
 20
14.0223
 30
0.000000
  70
    32
  0
VERTEX
  8
0
  5
2F2
 10
12.3343
 20
13.9938
 30
0.000000
  70
    32
  0
VERTEX
  8
0
  5
2F3
 10
12.3380
 20
13.9654
 30
0.000000
  70
    32
  0
VERTEX
  8
0
  5
2F4
 10
12.3418
 20
13.9369
 30
0.000000
  70
    32
  0
VERTEX
  8
0
  5
2F5
 10
12.3455
 20
13.9084
 30
0.000000
  70
    32
  0
VERTEX
  8
0
  5
2F6
 10
12.3493
 20
13.8800
 30
0.000000
  70
    32
  0
VERTEX
  8
0
  5
2F7
 10
12.3531
 20
13.8515
 30
0.000000
  70
    32
  0
VERTEX
  8
0
  5
2F8
 10
12.3569
 20
13.8231
 30
0.000000
  70
    32
  0
VERTEX
  8
0
  5
2F9
 10
12.3607
 20
13.7947
 30
0.000000
  70
    32
  0
VERTEX
  8
0
  5
2FA
 10
12.3645
 20
13.7662
 30
0.000000
  70
    32
  0
VERTEX
  8
0
  5
2FB
 10
12.3683
 20
13.7378
 30
0.000000
  70
    32
  0
VERTEX
  8
0
  5
2FC
 10
12.3722
 20
13.7093
 30
0.000000
  70
    32
  0
VERTEX
  8
0
  5
2FD
 10
12.3760
 20
13.6809
 30
0.000000
  70
    32
  0
VERTEX
  8
0
  5
2FE
 10
12.3799
 20
13.6524
 30
0.000000
  70
    32
  0
VERTEX
  8
0
  5
2FF
 10
12.3838
 20
13.6240
 30
0.000000
  70
    32
  0
VERTEX
  8
0
  5
300
 10
12.3877
 20
13.5956
 30
0.000000
  70
    32
  0
VERTEX
  8
0
  5
301
 10
12.3916
 20
13.5672
 30
0.000000
  70
    32
  0
VERTEX
  8
0
  5
302
 10
12.3956
 20
13.5387
 30
0.000000
  70
    32
  0
VERTEX
  8
0
  5
303
 10
12.3995
 20
13.5103
 30
0.000000
  70
    32
  0
VERTEX
  8
0
  5
304
 10
12.4035
 20
13.4819
 30
0.000000
  70
    32
  0
VERTEX
  8
0
  5
305
 10
12.4075
 20
13.4534
 30
0.000000
  70
    32
  0
VERTEX
  8
0
  5
306
 10
12.4115
 20
13.4250
 30
0.000000
  70
    32
  0
VERTEX
  8
0
  5
307
 10
12.4155
 20
13.3966
 30
0.000000
  70
    32
  0
VERTEX
  8
0
  5
308
 10
12.4195
 20
13.3682
 30
0.000000
  70
    32
  0
VERTEX
  8
0
  5
309
 10
12.4235
 20
13.3398
 30
0.000000
  70
    32
  0
VERTEX
  8
0
  5
30A
 10
12.4276
 20
13.3114
 30
0.000000
  70
    32
  0
VERTEX
  8
0
  5
30B
 10
12.4316
 20
13.2830
 30
0.000000
  70
    32
  0
VERTEX
  8
0
  5
30C
 10
12.4357
 20
13.2546
 30
0.000000
  70
    32
  0
VERTEX
  8
0
  5
30D
 10
12.4398
 20
13.2261
 30
0.000000
  70
    32
  0
VERTEX
  8
0
  5
30E
 10
12.4439
 20
13.1977
 30
0.000000
  70
    32
  0
VERTEX
  8
0
  5
30F
 10
12.4481
 20
13.1693
 30
0.000000
  70
    32
  0
VERTEX
  8
0
  5
310
 10
12.4522
 20
13.1409
 30
0.000000
  70
    32
  0
VERTEX
  8
0
  5
311
 10
12.4564
 20
13.1125
 30
0.000000
  70
    32
  0
VERTEX
  8
0
  5
312
 10
12.4606
 20
13.0842
 30
0.000000
  70
    32
  0
VERTEX
  8
0
  5
313
 10
12.4648
 20
13.0558
 30
0.000000
  70
    32
  0
VERTEX
  8
0
  5
314
 10
12.4690
 20
13.0274
 30
0.000000
  70
    32
  0
VERTEX
  8
0
  5
315
 10
12.4732
 20
12.9990
 30
0.000000
  70
    32
  0
VERTEX
  8
0
  5
316
 10
12.4774
 20
12.9706
 30
0.000000
  70
    32
  0
VERTEX
  8
0
  5
317
 10
12.4817
 20
12.9422
 30
0.000000
  70
    32
  0
VERTEX
  8
0
  5
318
 10
12.4860
 20
12.9138
 30
0.000000
  70
    32
  0
VERTEX
  8
0
  5
319
 10
12.4903
 20
12.8855
 30
0.000000
  70
    32
  0
VERTEX
  8
0
  5
31A
 10
12.4946
 20
12.8571
 30
0.000000
  70
    32
  0
VERTEX
  8
0
  5
31B
 10
12.4989
 20
12.8287
 30
0.000000
  70
    32
  0
VERTEX
  8
0
  5
31C
 10
12.5032
 20
12.8003
 30
0.000000
  70
    32
  0
VERTEX
  8
0
  5
31D
 10
12.5076
 20
12.7720
 30
0.000000
  70
    32
  0
VERTEX
  8
0
  5
31E
 10
12.5120
 20
12.7436
 30
0.000000
  70
    32
  0
VERTEX
  8
0
  5
31F
 10
12.5163
 20
12.7153
 30
0.000000
  70
    32
  0
VERTEX
  8
0
  5
320
 10
12.5208
 20
12.6869
 30
0.000000
  70
    32
  0
VERTEX
  8
0
  5
321
 10
12.5252
 20
12.6585
 30
0.000000
  70
    32
  0
VERTEX
  8
0
  5
322
 10
12.5296
 20
12.6302
 30
0.000000
  70
    32
  0
VERTEX
  8
0
  5
323
 10
12.5341
 20
12.6018
 30
0.000000
  70
    32
  0
VERTEX
  8
0
  5
324
 10
12.5386
 20
12.5735
 30
0.000000
  70
    32
  0
VERTEX
  8
0
  5
325
 10
12.5430
 20
12.5451
 30
0.000000
  70
    32
  0
VERTEX
  8
0
  5
326
 10
12.5476
 20
12.5168
 30
0.000000
  70
    32
  0
VERTEX
  8
0
  5
327
 10
12.5521
 20
12.4884
 30
0.000000
  70
    32
  0
VERTEX
  8
0
  5
328
 10
12.5566
 20
12.4601
 30
0.000000
  70
    32
  0
VERTEX
  8
0
  5
329
 10
12.5612
 20
12.4318
 30
0.000000
  70
    32
  0
VERTEX
  8
0
  5
32A
 10
12.5658
 20
12.4034
 30
0.000000
  70
    32
  0
VERTEX
  8
0
  5
32B
 10
12.5704
 20
12.3751
 30
0.000000
  70
    32
  0
VERTEX
  8
0
  5
32C
 10
12.5750
 20
12.3468
 30
0.000000
  70
    32
  0
VERTEX
  8
0
  5
32D
 10
12.5796
 20
12.3185
 30
0.000000
  70
    32
  0
VERTEX
  8
0
  5
32E
 10
12.5843
 20
12.2901
 30
0.000000
  70
    32
  0
VERTEX
  8
0
  5
32F
 10
12.5889
 20
12.2618
 30
0.000000
  70
    32
  0
VERTEX
  8
0
  5
330
 10
12.5936
 20
12.2335
 30
0.000000
  70
    32
  0
VERTEX
  8
0
  5
331
 10
12.5983
 20
12.2052
 30
0.000000
  70
    32
  0
VERTEX
  8
0
  5
332
 10
12.6031
 20
12.1769
 30
0.000000
  70
    32
  0
VERTEX
  8
0
  5
333
 10
12.6078
 20
12.1486
 30
0.000000
  70
    32
  0
VERTEX
  8
0
  5
334
 10
12.6126
 20
12.1203
 30
0.000000
  70
    32
  0
VERTEX
  8
0
  5
335
 10
12.6174
 20
12.0920
 30
0.000000
  70
    32
  0
VERTEX
  8
0
  5
336
 10
12.6222
 20
12.0637
 30
0.000000
  70
    32
  0
VERTEX
  8
0
  5
337
 10
12.6270
 20
12.0354
 30
0.000000
  70
    32
  0
VERTEX
  8
0
  5
338
 10
12.6318
 20
12.0071
 30
0.000000
  70
    32
  0
VERTEX
  8
0
  5
339
 10
12.6367
 20
11.9788
 30
0.000000
  70
    32
  0
VERTEX
  8
0
  5
33A
 10
12.6415
 20
11.9505
 30
0.000000
  70
    32
  0
VERTEX
  8
0
  5
33B
 10
12.6464
 20
11.9222
 30
0.000000
  70
    32
  0
VERTEX
  8
0
  5
33C
 10
12.6513
 20
11.8940
 30
0.000000
  70
    32
  0
VERTEX
  8
0
  5
33D
 10
12.6563
 20
11.8657
 30
0.000000
  70
    32
  0
VERTEX
  8
0
  5
33E
 10
12.6612
 20
11.8374
 30
0.000000
  70
    32
  0
VERTEX
  8
0
  5
33F
 10
12.6662
 20
11.8092
 30
0.000000
  70
    32
  0
VERTEX
  8
0
  5
340
 10
12.6712
 20
11.7809
 30
0.000000
  70
    32
  0
VERTEX
  8
0
  5
341
 10
12.6762
 20
11.7526
 30
0.000000
  70
    32
  0
VERTEX
  8
0
  5
342
 10
12.6812
 20
11.7244
 30
0.000000
  70
    32
  0
VERTEX
  8
0
  5
343
 10
12.6863
 20
11.6961
 30
0.000000
  70
    32
  0
VERTEX
  8
0
  5
344
 10
12.6913
 20
11.6679
 30
0.000000
  70
    32
  0
VERTEX
  8
0
  5
345
 10
12.6964
 20
11.6396
 30
0.000000
  70
    32
  0
VERTEX
  8
0
  5
346
 10
12.7015
 20
11.6114
 30
0.000000
  70
    32
  0
VERTEX
  8
0
  5
347
 10
12.7067
 20
11.5831
 30
0.000000
  70
    32
  0
VERTEX
  8
0
  5
348
 10
12.7118
 20
11.5549
 30
0.000000
  70
    32
  0
VERTEX
  8
0
  5
349
 10
12.7170
 20
11.5267
 30
0.000000
  70
    32
  0
VERTEX
  8
0
  5
34A
 10
12.7222
 20
11.4984
 30
0.000000
  70
    32
  0
VERTEX
  8
0
  5
34B
 10
12.7274
 20
11.4702
 30
0.000000
  70
    32
  0
VERTEX
  8
0
  5
34C
 10
12.7327
 20
11.4420
 30
0.000000
  70
    32
  0
VERTEX
  8
0
  5
34D
 10
12.7379
 20
11.4138
 30
0.000000
  70
    32
  0
VERTEX
  8
0
  5
34E
 10
12.7432
 20
11.3856
 30
0.000000
  70
    32
  0
VERTEX
  8
0
  5
34F
 10
12.7485
 20
11.3574
 30
0.000000
  70
    32
  0
VERTEX
  8
0
  5
350
 10
12.7538
 20
11.3291
 30
0.000000
  70
    32
  0
VERTEX
  8
0
  5
351
 10
12.7592
 20
11.3009
 30
0.000000
  70
    32
  0
VERTEX
  8
0
  5
352
 10
12.7645
 20
11.2728
 30
0.000000
  70
    32
  0
VERTEX
  8
0
  5
353
 10
12.7699
 20
11.2446
 30
0.000000
  70
    32
  0
VERTEX
  8
0
  5
354
 10
12.7753
 20
11.2164
 30
0.000000
  70
    32
  0
VERTEX
  8
0
  5
355
 10
12.7808
 20
11.1882
 30
0.000000
  70
    32
  0
VERTEX
  8
0
  5
356
 10
12.7862
 20
11.1600
 30
0.000000
  70
    32
  0
VERTEX
  8
0
  5
357
 10
12.7917
 20
11.1318
 30
0.000000
  70
    32
  0
VERTEX
  8
0
  5
358
 10
12.7972
 20
11.1037
 30
0.000000
  70
    32
  0
VERTEX
  8
0
  5
359
 10
12.8027
 20
11.0755
 30
0.000000
  70
    32
  0
VERTEX
  8
0
  5
35A
 10
12.8083
 20
11.0473
 30
0.000000
  70
    32
  0
VERTEX
  8
0
  5
35B
 10
12.8139
 20
11.0192
 30
0.000000
  70
    32
  0
VERTEX
  8
0
  5
35C
 10
12.8195
 20
10.9910
 30
0.000000
  70
    32
  0
VERTEX
  8
0
  5
35D
 10
12.8251
 20
10.9629
 30
0.000000
  70
    32
  0
VERTEX
  8
0
  5
35E
 10
12.8307
 20
10.9348
 30
0.000000
  70
    32
  0
VERTEX
  8
0
  5
35F
 10
12.8364
 20
10.9066
 30
0.000000
  70
    32
  0
VERTEX
  8
0
  5
360
 10
12.8421
 20
10.8785
 30
0.000000
  70
    32
  0
VERTEX
  8
0
  5
361
 10
12.8478
 20
10.8504
 30
0.000000
  70
    32
  0
VERTEX
  8
0
  5
362
 10
12.8535
 20
10.8222
 30
0.000000
  70
    32
  0
VERTEX
  8
0
  5
363
 10
12.8593
 20
10.7941
 30
0.000000
  70
    32
  0
VERTEX
  8
0
  5
364
 10
12.8651
 20
10.7660
 30
0.000000
  70
    32
  0
VERTEX
  8
0
  5
365
 10
12.8709
 20
10.7379
 30
0.000000
  70
    32
  0
VERTEX
  8
0
  5
366
 10
12.8767
 20
10.7098
 30
0.000000
  70
    32
  0
VERTEX
  8
0
  5
367
 10
12.8826
 20
10.6817
 30
0.000000
  70
    32
  0
VERTEX
  8
0
  5
368
 10
12.8885
 20
10.6536
 30
0.000000
  70
    32
  0
VERTEX
  8
0
  5
369
 10
12.8944
 20
10.6255
 30
0.000000
  70
    32
  0
VERTEX
  8
0
  5
36A
 10
12.9003
 20
10.5975
 30
0.000000
  70
    32
  0
VERTEX
  8
0
  5
36B
 10
12.9063
 20
10.5694
 30
0.000000
  70
    32
  0
VERTEX
  8
0
  5
36C
 10
12.9122
 20
10.5413
 30
0.000000
  70
    32
  0
VERTEX
  8
0
  5
36D
 10
12.9183
 20
10.5132
 30
0.000000
  70
    32
  0
VERTEX
  8
0
  5
36E
 10
12.9243
 20
10.4852
 30
0.000000
  70
    32
  0
VERTEX
  8
0
  5
36F
 10
12.9304
 20
10.4571
 30
0.000000
  70
    32
  0
VERTEX
  8
0
  5
370
 10
12.9364
 20
10.4291
 30
0.000000
  70
    32
  0
VERTEX
  8
0
  5
371
 10
12.9426
 20
10.4010
 30
0.000000
  70
    32
  0
VERTEX
  8
0
  5
372
 10
12.9487
 20
10.3730
 30
0.000000
  70
    32
  0
VERTEX
  8
0
  5
373
 10
12.9549
 20
10.3450
 30
0.000000
  70
    32
  0
VERTEX
  8
0
  5
374
 10
12.9611
 20
10.3170
 30
0.000000
  70
    32
  0
VERTEX
  8
0
  5
375
 10
12.9673
 20
10.2889
 30
0.000000
  70
    32
  0
VERTEX
  8
0
  5
376
 10
12.9735
 20
10.2609
 30
0.000000
  70
    32
  0
VERTEX
  8
0
  5
377
 10
12.9798
 20
10.2329
 30
0.000000
  70
    32
  0
VERTEX
  8
0
  5
378
 10
12.9861
 20
10.2049
 30
0.000000
  70
    32
  0
VERTEX
  8
0
  5
379
 10
12.9924
 20
10.1769
 30
0.000000
  70
    32
  0
VERTEX
  8
0
  5
37A
 10
12.9988
 20
10.1489
 30
0.000000
  70
    32
  0
VERTEX
  8
0
  5
37B
 10
13.0052
 20
10.1210
 30
0.000000
  70
    32
  0
VERTEX
  8
0
  5
37C
 10
13.0116
 20
10.0930
 30
0.000000
  70
    32
  0
VERTEX
  8
0
  5
37D
 10
13.0180
 20
10.0650
 30
0.000000
  70
    32
  0
VERTEX
  8
0
  5
37E
 10
13.0245
 20
10.0371
 30
0.000000
  70
    32
  0
VERTEX
  8
0
  5
37F
 10
13.0310
 20
10.0091
 30
0.000000
  70
    32
  0
VERTEX
  8
0
  5
380
 10
13.0375
 20
9.98115
 30
0.000000
  70
    32
  0
VERTEX
  8
0
  5
381
 10
13.0441
 20
9.95321
 30
0.000000
  70
    32
  0
VERTEX
  8
0
  5
382
 10
13.0507
 20
9.92528
 30
0.000000
  70
    32
  0
VERTEX
  8
0
  5
383
 10
13.0573
 20
9.89735
 30
0.000000
  70
    32
  0
VERTEX
  8
0
  5
384
 10
13.0639
 20
9.86943
 30
0.000000
  70
    32
  0
VERTEX
  8
0
  5
385
 10
13.0706
 20
9.84152
 30
0.000000
  70
    32
  0
VERTEX
  8
0
  5
386
 10
13.0773
 20
9.81361
 30
0.000000
  70
    32
  0
VERTEX
  8
0
  5
387
 10
13.0840
 20
9.78571
 30
0.000000
  70
    32
  0
VERTEX
  8
0
  5
388
 10
13.0908
 20
9.75782
 30
0.000000
  70
    32
  0
VERTEX
  8
0
  5
389
 10
13.0976
 20
9.72994
 30
0.000000
  70
    32
  0
VERTEX
  8
0
  5
38A
 10
13.1044
 20
9.70207
 30
0.000000
  70
    32
  0
VERTEX
  8
0
  5
38B
 10
13.1113
 20
9.67420
 30
0.000000
  70
    32
  0
VERTEX
  8
0
  5
38C
 10
13.1182
 20
9.64634
 30
0.000000
  70
    32
  0
VERTEX
  8
0
  5
38D
 10
13.1251
 20
9.61849
 30
0.000000
  70
    32
  0
VERTEX
  8
0
  5
38E
 10
13.1321
 20
9.59064
 30
0.000000
  70
    32
  0
VERTEX
  8
0
  5
38F
 10
13.1391
 20
9.56281
 30
0.000000
  70
    32
  0
VERTEX
  8
0
  5
390
 10
13.1461
 20
9.53498
 30
0.000000
  70
    32
  0
VERTEX
  8
0
  5
391
 10
13.1531
 20
9.50716
 30
0.000000
  70
    32
  0
VERTEX
  8
0
  5
392
 10
13.1602
 20
9.47935
 30
0.000000
  70
    32
  0
VERTEX
  8
0
  5
393
 10
13.1673
 20
9.45155
 30
0.000000
  70
    32
  0
VERTEX
  8
0
  5
394
 10
13.1745
 20
9.42376
 30
0.000000
  70
    32
  0
VERTEX
  8
0
  5
395
 10
13.1817
 20
9.39597
 30
0.000000
  70
    32
  0
VERTEX
  8
0
  5
396
 10
13.1889
 20
9.36820
 30
0.000000
  70
    32
  0
VERTEX
  8
0
  5
397
 10
13.1962
 20
9.34043
 30
0.000000
  70
    32
  0
VERTEX
  8
0
  5
398
 10
13.2035
 20
9.31267
 30
0.000000
  70
    32
  0
VERTEX
  8
0
  5
399
 10
13.2108
 20
9.28492
 30
0.000000
  70
    32
  0
VERTEX
  8
0
  5
39A
 10
13.2182
 20
9.25718
 30
0.000000
  70
    32
  0
VERTEX
  8
0
  5
39B
 10
13.2256
 20
9.22945
 30
0.000000
  70
    32
  0
VERTEX
  8
0
  5
39C
 10
13.2330
 20
9.20173
 30
0.000000
  70
    32
  0
VERTEX
  8
0
  5
39D
 10
13.2405
 20
9.17402
 30
0.000000
  70
    32
  0
VERTEX
  8
0
  5
39E
 10
13.2480
 20
9.14632
 30
0.000000
  70
    32
  0
VERTEX
  8
0
  5
39F
 10
13.2555
 20
9.11863
 30
0.000000
  70
    32
  0
VERTEX
  8
0
  5
3A0
 10
13.2631
 20
9.09095
 30
0.000000
  70
    32
  0
VERTEX
  8
0
  5
3A1
 10
13.2707
 20
9.06327
 30
0.000000
  70
    32
  0
VERTEX
  8
0
  5
3A2
 10
13.2783
 20
9.03561
 30
0.000000
  70
    32
  0
VERTEX
  8
0
  5
3A3
 10
13.2860
 20
9.00796
 30
0.000000
  70
    32
  0
VERTEX
  8
0
  5
3A4
 10
13.2938
 20
8.98032
 30
0.000000
  70
    32
  0
VERTEX
  8
0
  5
3A5
 10
13.3015
 20
8.95269
 30
0.000000
  70
    32
  0
VERTEX
  8
0
  5
3A6
 10
13.3093
 20
8.92507
 30
0.000000
  70
    32
  0
VERTEX
  8
0
  5
3A7
 10
13.3172
 20
8.89746
 30
0.000000
  70
    32
  0
VERTEX
  8
0
  5
3A8
 10
13.3250
 20
8.86986
 30
0.000000
  70
    32
  0
VERTEX
  8
0
  5
3A9
 10
13.3330
 20
8.84227
 30
0.000000
  70
    32
  0
VERTEX
  8
0
  5
3AA
 10
13.3409
 20
8.81470
 30
0.000000
  70
    32
  0
VERTEX
  8
0
  5
3AB
 10
13.3489
 20
8.78713
 30
0.000000
  70
    32
  0
VERTEX
  8
0
  5
3AC
 10
13.3569
 20
8.75958
 30
0.000000
  70
    32
  0
VERTEX
  8
0
  5
3AD
 10
13.3650
 20
8.73203
 30
0.000000
  70
    32
  0
VERTEX
  8
0
  5
3AE
 10
13.3731
 20
8.70450
 30
0.000000
  70
    32
  0
VERTEX
  8
0
  5
3AF
 10
13.3813
 20
8.67698
 30
0.000000
  70
    32
  0
VERTEX
  8
0
  5
3B0
 10
13.3895
 20
8.64947
 30
0.000000
  70
    32
  0
VERTEX
  8
0
  5
3B1
 10
13.3977
 20
8.62198
 30
0.000000
  70
    32
  0
VERTEX
  8
0
  5
3B2
 10
13.4060
 20
8.59449
 30
0.000000
  70
    32
  0
VERTEX
  8
0
  5
3B3
 10
13.4143
 20
8.56702
 30
0.000000
  70
    32
  0
VERTEX
  8
0
  5
3B4
 10
13.4226
 20
8.53956
 30
0.000000
  70
    32
  0
VERTEX
  8
0
  5
3B5
 10
13.4310
 20
8.51211
 30
0.000000
  70
    32
  0
VERTEX
  8
0
  5
3B6
 10
13.4395
 20
8.48468
 30
0.000000
  70
    32
  0
VERTEX
  8
0
  5
3B7
 10
13.4479
 20
8.45726
 30
0.000000
  70
    32
  0
VERTEX
  8
0
  5
3B8
 10
13.4565
 20
8.42985
 30
0.000000
  70
    32
  0
VERTEX
  8
0
  5
3B9
 10
13.4650
 20
8.40246
 30
0.000000
  70
    32
  0
VERTEX
  8
0
  5
3BA
 10
13.4736
 20
8.37508
 30
0.000000
  70
    32
  0
VERTEX
  8
0
  5
3BB
 10
13.4823
 20
8.34771
 30
0.000000
  70
    32
  0
VERTEX
  8
0
  5
3BC
 10
13.4910
 20
8.32037
 30
0.000000
  70
    32
  0
VERTEX
  8
0
  5
3BD
 10
13.4998
 20
8.29303
 30
0.000000
  70
    32
  0
VERTEX
  8
0
  5
3BE
 10
13.5086
 20
8.26571
 30
0.000000
  70
    32
  0
VERTEX
  8
0
  5
3BF
 10
13.5174
 20
8.23841
 30
0.000000
  70
    32
  0
VERTEX
  8
0
  5
3C0
 10
13.5263
 20
8.21112
 30
0.000000
  70
    32
  0
VERTEX
  8
0
  5
3C1
 10
13.5353
 20
8.18385
 30
0.000000
  70
    32
  0
VERTEX
  8
0
  5
3C2
 10
13.5443
 20
8.15659
 30
0.000000
  70
    32
  0
VERTEX
  8
0
  5
3C3
 10
13.5533
 20
8.12935
 30
0.000000
  70
    32
  0
VERTEX
  8
0
  5
3C4
 10
13.5624
 20
8.10213
 30
0.000000
  70
    32
  0
VERTEX
  8
0
  5
3C5
 10
13.5715
 20
8.07493
 30
0.000000
  70
    32
  0
VERTEX
  8
0
  5
3C6
 10
13.5807
 20
8.04774
 30
0.000000
  70
    32
  0
VERTEX
  8
0
  5
3C7
 10
13.5900
 20
8.02057
 30
0.000000
  70
    32
  0
VERTEX
  8
0
  5
3C8
 10
13.5993
 20
7.99342
 30
0.000000
  70
    32
  0
VERTEX
  8
0
  5
3C9
 10
13.6087
 20
7.96628
 30
0.000000
  70
    32
  0
VERTEX
  8
0
  5
3CA
 10
13.6181
 20
7.93917
 30
0.000000
  70
    32
  0
VERTEX
  8
0
  5
3CB
 10
13.6275
 20
7.91207
 30
0.000000
  70
    32
  0
VERTEX
  8
0
  5
3CC
 10
13.6371
 20
7.88500
 30
0.000000
  70
    32
  0
VERTEX
  8
0
  5
3CD
 10
13.6466
 20
7.85794
 30
0.000000
  70
    32
  0
VERTEX
  8
0
  5
3CE
 10
13.6563
 20
7.83090
 30
0.000000
  70
    32
  0
VERTEX
  8
0
  5
3CF
 10
13.6660
 20
7.80388
 30
0.000000
  70
    32
  0
VERTEX
  8
0
  5
3D0
 10
13.6757
 20
7.77689
 30
0.000000
  70
    32
  0
VERTEX
  8
0
  5
3D1
 10
13.6855
 20
7.74991
 30
0.000000
  70
    32
  0
VERTEX
  8
0
  5
3D2
 10
13.6954
 20
7.72295
 30
0.000000
  70
    32
  0
VERTEX
  8
0
  5
3D3
 10
13.7053
 20
7.69602
 30
0.000000
  70
    32
  0
VERTEX
  8
0
  5
3D4
 10
13.7153
 20
7.66911
 30
0.000000
  70
    32
  0
VERTEX
  8
0
  5
3D5
 10
13.7253
 20
7.64222
 30
0.000000
  70
    32
  0
VERTEX
  8
0
  5
3D6
 10
13.7354
 20
7.61535
 30
0.000000
  70
    32
  0
VERTEX
  8
0
  5
3D7
 10
13.7456
 20
7.58850
 30
0.000000
  70
    32
  0
VERTEX
  8
0
  5
3D8
 10
13.7558
 20
7.56168
 30
0.000000
  70
    32
  0
VERTEX
  8
0
  5
3D9
 10
13.7661
 20
7.53488
 30
0.000000
  70
    32
  0
VERTEX
  8
0
  5
3DA
 10
13.7764
 20
7.50811
 30
0.000000
  70
    32
  0
VERTEX
  8
0
  5
3DB
 10
13.7868
 20
7.48136
 30
0.000000
  70
    32
  0
VERTEX
  8
0
  5
3DC
 10
13.7973
 20
7.45463
 30
0.000000
  70
    32
  0
VERTEX
  8
0
  5
3DD
 10
13.8078
 20
7.42793
 30
0.000000
  70
    32
  0
VERTEX
  8
0
  5
3DE
 10
13.8184
 20
7.40126
 30
0.000000
  70
    32
  0
VERTEX
  8
0
  5
3DF
 10
13.8291
 20
7.37461
 30
0.000000
  70
    32
  0
VERTEX
  8
0
  5
3E0
 10
13.8398
 20
7.34798
 30
0.000000
  70
    32
  0
VERTEX
  8
0
  5
3E1
 10
13.8506
 20
7.32139
 30
0.000000
  70
    32
  0
VERTEX
  8
0
  5
3E2
 10
13.8615
 20
7.29482
 30
0.000000
  70
    32
  0
VERTEX
  8
0
  5
3E3
 10
13.8724
 20
7.26828
 30
0.000000
  70
    32
  0
VERTEX
  8
0
  5
3E4
 10
13.8834
 20
7.24176
 30
0.000000
  70
    32
  0
VERTEX
  8
0
  5
3E5
 10
13.8945
 20
7.21527
 30
0.000000
  70
    32
  0
VERTEX
  8
0
  5
3E6
 10
13.9056
 20
7.18881
 30
0.000000
  70
    32
  0
VERTEX
  8
0
  5
3E7
 10
13.9168
 20
7.16238
 30
0.000000
  70
    32
  0
VERTEX
  8
0
  5
3E8
 10
13.9281
 20
7.13598
 30
0.000000
  70
    32
  0
VERTEX
  8
0
  5
3E9
 10
13.9394
 20
7.10961
 30
0.000000
  70
    32
  0
VERTEX
  8
0
  5
3EA
 10
13.9508
 20
7.08327
 30
0.000000
  70
    32
  0
VERTEX
  8
0
  5
3EB
 10
13.9623
 20
7.05696
 30
0.000000
  70
    32
  0
VERTEX
  8
0
  5
3EC
 10
13.9739
 20
7.03068
 30
0.000000
  70
    32
  0
VERTEX
  8
0
  5
3ED
 10
13.9855
 20
7.00443
 30
0.000000
  70
    32
  0
VERTEX
  8
0
  5
3EE
 10
13.9972
 20
6.97821
 30
0.000000
  70
    32
  0
VERTEX
  8
0
  5
3EF
 10
14.0090
 20
6.95202
 30
0.000000
  70
    32
  0
VERTEX
  8
0
  5
3F0
 10
14.0208
 20
6.92587
 30
0.000000
  70
    32
  0
VERTEX
  8
0
  5
3F1
 10
14.0328
 20
6.89975
 30
0.000000
  70
    32
  0
VERTEX
  8
0
  5
3F2
 10
14.0448
 20
6.87367
 30
0.000000
  70
    32
  0
VERTEX
  8
0
  5
3F3
 10
14.0568
 20
6.84762
 30
0.000000
  70
    32
  0
VERTEX
  8
0
  5
3F4
 10
14.0690
 20
6.82161
 30
0.000000
  70
    32
  0
VERTEX
  8
0
  5
3F5
 10
14.0812
 20
6.79564
 30
0.000000
  70
    32
  0
VERTEX
  8
0
  5
3F6
 10
14.0936
 20
6.76971
 30
0.000000
  70
    32
  0
VERTEX
  8
0
  5
3F7
 10
14.1060
 20
6.74382
 30
0.000000
  70
    32
  0
VERTEX
  8
0
  5
3F8
 10
14.1185
 20
6.71796
 30
0.000000
  70
    32
  0
VERTEX
  8
0
  5
3F9
 10
14.1310
 20
6.69215
 30
0.000000
  70
    32
  0
VERTEX
  8
0
  5
3FA
 10
14.1437
 20
6.66639
 30
0.000000
  70
    32
  0
VERTEX
  8
0
  5
3FB
 10
14.1564
 20
6.64066
 30
0.000000
  70
    32
  0
VERTEX
  8
0
  5
3FC
 10
14.1693
 20
6.61498
 30
0.000000
  70
    32
  0
VERTEX
  8
0
  5
3FD
 10
14.1822
 20
6.58935
 30
0.000000
  70
    32
  0
VERTEX
  8
0
  5
3FE
 10
14.1952
 20
6.56376
 30
0.000000
  70
    32
  0
VERTEX
  8
0
  5
3FF
 10
14.2083
 20
6.53821
 30
0.000000
  70
    32
  0
VERTEX
  8
0
  5
400
 10
14.2215
 20
6.51272
 30
0.000000
  70
    32
  0
VERTEX
  8
0
  5
401
 10
14.2348
 20
6.48728
 30
0.000000
  70
    32
  0
VERTEX
  8
0
  5
402
 10
14.2482
 20
6.46188
 30
0.000000
  70
    32
  0
VERTEX
  8
0
  5
403
 10
14.2617
 20
6.43654
 30
0.000000
  70
    32
  0
VERTEX
  8
0
  5
404
 10
14.2753
 20
6.41124
 30
0.000000
  70
    32
  0
VERTEX
  8
0
  5
405
 10
14.2890
 20
6.38600
 30
0.000000
  70
    32
  0
VERTEX
  8
0
  5
406
 10
14.3028
 20
6.36082
 30
0.000000
  70
    32
  0
VERTEX
  8
0
  5
407
 10
14.3166
 20
6.33568
 30
0.000000
  70
    32
  0
VERTEX
  8
0
  5
408
 10
14.3306
 20
6.31060
 30
0.000000
  70
    32
  0
VERTEX
  8
0
  5
409
 10
14.3447
 20
6.28558
 30
0.000000
  70
    32
  0
VERTEX
  8
0
  5
40A
 10
14.3589
 20
6.26062
 30
0.000000
  70
    32
  0
VERTEX
  8
0
  5
40B
 10
14.3732
 20
6.23571
 30
0.000000
  70
    32
  0
VERTEX
  8
0
  5
40C
 10
14.3876
 20
6.21087
 30
0.000000
  70
    32
  0
VERTEX
  8
0
  5
40D
 10
14.4021
 20
6.18608
 30
0.000000
  70
    32
  0
VERTEX
  8
0
  5
40E
 10
14.4168
 20
6.16136
 30
0.000000
  70
    32
  0
VERTEX
  8
0
  5
40F
 10
14.4315
 20
6.13670
 30
0.000000
  70
    32
  0
VERTEX
  8
0
  5
410
 10
14.4464
 20
6.11211
 30
0.000000
  70
    32
  0
VERTEX
  8
0
  5
411
 10
14.4613
 20
6.08759
 30
0.000000
  70
    32
  0
VERTEX
  8
0
  5
412
 10
14.4764
 20
6.06315
 30
0.000000
  70
    32
  0
VERTEX
  8
0
  5
413
 10
14.4916
 20
6.03877
 30
0.000000
  70
    32
  0
VERTEX
  8
0
  5
414
 10
14.5069
 20
6.01447
 30
0.000000
  70
    32
  0
VERTEX
  8
0
  5
415
 10
14.5224
 20
5.99024
 30
0.000000
  70
    32
  0
VERTEX
  8
0
  5
416
 10
14.5379
 20
5.96610
 30
0.000000
  70
    32
  0
VERTEX
  8
0
  5
417
 10
14.5536
 20
5.94203
 30
0.000000
  70
    32
  0
VERTEX
  8
0
  5
418
 10
14.5694
 20
5.91805
 30
0.000000
  70
    32
  0
VERTEX
  8
0
  5
419
 10
14.5854
 20
5.89416
 30
0.000000
  70
    32
  0
VERTEX
  8
0
  5
41A
 10
14.6014
 20
5.87035
 30
0.000000
  70
    32
  0
VERTEX
  8
0
  5
41B
 10
14.6176
 20
5.84662
 30
0.000000
  70
    32
  0
VERTEX
  8
0
  5
41C
 10
14.6340
 20
5.82299
 30
0.000000
  70
    32
  0
VERTEX
  8
0
  5
41D
 10
14.6504
 20
5.79945
 30
0.000000
  70
    32
  0
VERTEX
  8
0
  5
41E
 10
14.6670
 20
5.77601
 30
0.000000
  70
    32
  0
VERTEX
  8
0
  5
41F
 10
14.6838
 20
5.75266
 30
0.000000
  70
    32
  0
VERTEX
  8
0
  5
420
 10
14.7006
 20
5.72940
 30
0.000000
  70
    32
  0
VERTEX
  8
0
  5
421
 10
14.7177
 20
5.70625
 30
0.000000
  70
    32
  0
VERTEX
  8
0
  5
422
 10
14.7348
 20
5.68320
 30
0.000000
  70
    32
  0
VERTEX
  8
0
  5
423
 10
14.7521
 20
5.66026
 30
0.000000
  70
    32
  0
VERTEX
  8
0
  5
424
 10
14.7696
 20
5.63742
 30
0.000000
  70
    32
  0
VERTEX
  8
0
  5
425
 10
14.7871
 20
5.61469
 30
0.000000
  70
    32
  0
VERTEX
  8
0
  5
426
 10
14.8049
 20
5.59206
 30
0.000000
  70
    32
  0
VERTEX
  8
0
  5
427
 10
14.8228
 20
5.56955
 30
0.000000
  70
    32
  0
VERTEX
  8
0
  5
428
 10
14.8408
 20
5.54715
 30
0.000000
  70
    32
  0
VERTEX
  8
0
  5
429
 10
14.8590
 20
5.52487
 30
0.000000
  70
    32
  0
VERTEX
  8
0
  5
42A
 10
14.8773
 20
5.50271
 30
0.000000
  70
    32
  0
VERTEX
  8
0
  5
42B
 10
14.8958
 20
5.48067
 30
0.000000
  70
    32
  0
VERTEX
  8
0
  5
42C
 10
14.9145
 20
5.45876
 30
0.000000
  70
    32
  0
VERTEX
  8
0
  5
42D
 10
14.9333
 20
5.43699
 30
0.000000
  70
    32
  0
VERTEX
  8
0
  5
42E
 10
14.9523
 20
5.41536
 30
0.000000
  70
    32
  0
VERTEX
  8
0
  5
42F
 10
14.9714
 20
5.39387
 30
0.000000
  70
    32
  0
VERTEX
  8
0
  5
430
 10
14.9907
 20
5.37253
 30
0.000000
  70
    32
  0
VERTEX
  8
0
  5
431
 10
15.0102
 20
5.35135
 30
0.000000
  70
    32
  0
VERTEX
  8
0
  5
432
 10
15.0299
 20
5.33033
 30
0.000000
  70
    32
  0
VERTEX
  8
0
  5
433
 10
15.0497
 20
5.30948
 30
0.000000
  70
    32
  0
VERTEX
  8
0
  5
434
 10
15.0697
 20
5.28879
 30
0.000000
  70
    32
  0
VERTEX
  8
0
  5
435
 10
15.0899
 20
5.26828
 30
0.000000
  70
    32
  0
VERTEX
  8
0
  5
436
 10
15.1103
 20
5.24795
 30
0.000000
  70
    32
  0
VERTEX
  8
0
  5
437
 10
15.1308
 20
5.22781
 30
0.000000
  70
    32
  0
VERTEX
  8
0
  5
438
 10
15.1515
 20
5.20786
 30
0.000000
  70
    32
  0
VERTEX
  8
0
  5
439
 10
15.1725
 20
5.18811
 30
0.000000
  70
    32
  0
VERTEX
  8
0
  5
43A
 10
15.1936
 20
5.16856
 30
0.000000
  70
    32
  0
VERTEX
  8
0
  5
43B
 10
15.2149
 20
5.14921
 30
0.000000
  70
    32
  0
VERTEX
  8
0
  5
43C
 10
15.2364
 20
5.13008
 30
0.000000
  70
    32
  0
VERTEX
  8
0
  5
43D
 10
15.2581
 20
5.11116
 30
0.000000
  70
    32
  0
VERTEX
  8
0
  5
43E
 10
15.2799
 20
5.09247
 30
0.000000
  70
    32
  0
VERTEX
  8
0
  5
43F
 10
15.3020
 20
5.07400
 30
0.000000
  70
    32
  0
VERTEX
  8
0
  5
440
 10
15.3243
 20
5.05577
 30
0.000000
  70
    32
  0
VERTEX
  8
0
  5
441
 10
15.3468
 20
5.03777
 30
0.000000
  70
    32
  0
VERTEX
  8
0
  5
442
 10
15.3695
 20
5.02001
 30
0.000000
  70
    32
  0
VERTEX
  8
0
  5
443
 10
15.3924
 20
5.00251
 30
0.000000
  70
    32
  0
VERTEX
  8
0
  5
444
 10
15.4156
 20
4.98525
 30
0.000000
  70
    32
  0
VERTEX
  8
0
  5
445
 10
15.4389
 20
4.96826
 30
0.000000
  70
    32
  0
VERTEX
  8
0
  5
446
 10
15.4624
 20
4.95153
 30
0.000000
  70
    32
  0
VERTEX
  8
0
  5
447
 10
15.4862
 20
4.93506
 30
0.000000
  70
    32
  0
VERTEX
  8
0
  5
448
 10
15.5102
 20
4.91887
 30
0.000000
  70
    32
  0
VERTEX
  8
0
  5
449
 10
15.5344
 20
4.90296
 30
0.000000
  70
    32
  0
VERTEX
  8
0
  5
44A
 10
15.5588
 20
4.88734
 30
0.000000
  70
    32
  0
VERTEX
  8
0
  5
44B
 10
15.5834
 20
4.87201
 30
0.000000
  70
    32
  0
VERTEX
  8
0
  5
44C
 10
15.6082
 20
4.85699
 30
0.000000
  70
    32
  0
VERTEX
  8
0
  5
44D
 10
15.6332
 20
4.84227
 30
0.000000
  70
    32
  0
VERTEX
  8
0
  5
44E
 10
15.6583
 20
4.82787
 30
0.000000
  70
    32
  0
VERTEX
  8
0
  5
44F
 10
15.6837
 20
4.81378
 30
0.000000
  70
    32
  0
VERTEX
  8
0
  5
450
 10
15.7092
 20
4.80003
 30
0.000000
  70
    32
  0
VERTEX
  8
0
  5
451
 10
15.7349
 20
4.78661
 30
0.000000
  70
    32
  0
VERTEX
  8
0
  5
452
 10
15.7608
 20
4.77353
 30
0.000000
  70
    32
  0
VERTEX
  8
0
  5
453
 10
15.7868
 20
4.76079
 30
0.000000
  70
    32
  0
VERTEX
  8
0
  5
454
 10
15.8130
 20
4.74841
 30
0.000000
  70
    32
  0
VERTEX
  8
0
  5
455
 10
15.8394
 20
4.73639
 30
0.000000
  70
    32
  0
VERTEX
  8
0
  5
456
 10
15.8659
 20
4.72474
 30
0.000000
  70
    32
  0
VERTEX
  8
0
  5
457
 10
15.8925
 20
4.71346
 30
0.000000
  70
    32
  0
VERTEX
  8
0
  5
458
 10
15.9193
 20
4.70257
 30
0.000000
  70
    32
  0
VERTEX
  8
0
  5
459
 10
15.9462
 20
4.69206
 30
0.000000
  70
    32
  0
VERTEX
  8
0
  5
45A
 10
15.9733
 20
4.68194
 30
0.000000
  70
    32
  0
VERTEX
  8
0
  5
45B
 10
16.0005
 20
4.67222
 30
0.000000
  70
    32
  0
VERTEX
  8
0
  5
45C
 10
16.0278
 20
4.66291
 30
0.000000
  70
    32
  0
VERTEX
  8
0
  5
45D
 10
16.0552
 20
4.65402
 30
0.000000
  70
    32
  0
VERTEX
  8
0
  5
45E
 10
16.0827
 20
4.64554
 30
0.000000
  70
    32
  0
VERTEX
  8
0
  5
45F
 10
16.1103
 20
4.63749
 30
0.000000
  70
    32
  0
VERTEX
  8
0
  5
460
 10
16.1381
 20
4.62987
 30
0.000000
  70
    32
  0
VERTEX
  8
0
  5
461
 10
16.1659
 20
4.62270
 30
0.000000
  70
    32
  0
VERTEX
  8
0
  5
462
 10
16.1939
 20
4.61597
 30
0.000000
  70
    32
  0
VERTEX
  8
0
  5
463
 10
16.2219
 20
4.60969
 30
0.000000
  70
    32
  0
VERTEX
  8
0
  5
464
 10
16.2500
 20
4.60387
 30
0.000000
  70
    32
  0
SEQEND
  8
0
  5
465
  0
POLYLINE
  8
0
  5
466
  66
     1
 10
0.000000
 20
0.000000
 30
0.000000
  70
     8
  0
VERTEX
  8
0
  5
467
 10
37.9268
 20
10.2233
 30
0.000000
  70
    32
  0
VERTEX
  8
0
  5
468
 10
37.8782
 20
10.1801
 30
0.000000
  70
    32
  0
VERTEX
  8
0
  5
469
 10
37.8295
 20
10.1371
 30
0.000000
  70
    32
  0
VERTEX
  8
0
  5
46A
 10
37.7807
 20
10.0942
 30
0.000000
  70
    32
  0
VERTEX
  8
0
  5
46B
 10
37.7317
 20
10.0514
 30
0.000000
  70
    32
  0
VERTEX
  8
0
  5
46C
 10
37.6827
 20
10.0088
 30
0.000000
  70
    32
  0
VERTEX
  8
0
  5
46D
 10
37.6335
 20
9.96626
 30
0.000000
  70
    32
  0
VERTEX
  8
0
  5
46E
 10
37.5842
 20
9.92387
 30
0.000000
  70
    32
  0
VERTEX
  8
0
  5
46F
 10
37.5348
 20
9.88161
 30
0.000000
  70
    32
  0
VERTEX
  8
0
  5
470
 10
37.4853
 20
9.83947
 30
0.000000
  70
    32
  0
VERTEX
  8
0
  5
471
 10
37.4357
 20
9.79746
 30
0.000000
  70
    32
  0
VERTEX
  8
0
  5
472
 10
37.3859
 20
9.75558
 30
0.000000
  70
    32
  0
VERTEX
  8
0
  5
473
 10
37.3361
 20
9.71383
 30
0.000000
  70
    32
  0
VERTEX
  8
0
  5
474
 10
37.2861
 20
9.67220
 30
0.000000
  70
    32
  0
VERTEX
  8
0
  5
475
 10
37.2361
 20
9.63071
 30
0.000000
  70
    32
  0
VERTEX
  8
0
  5
476
 10
37.1859
 20
9.58934
 30
0.000000
  70
    32
  0
VERTEX
  8
0
  5
477
 10
37.1356
 20
9.54810
 30
0.000000
  70
    32
  0
VERTEX
  8
0
  5
478
 10
37.0852
 20
9.50698
 30
0.000000
  70
    32
  0
VERTEX
  8
0
  5
479
 10
37.0347
 20
9.46600
 30
0.000000
  70
    32
  0
VERTEX
  8
0
  5
47A
 10
36.9841
 20
9.42515
 30
0.000000
  70
    32
  0
VERTEX
  8
0
  5
47B
 10
36.9334
 20
9.38442
 30
0.000000
  70
    32
  0
VERTEX
  8
0
  5
47C
 10
36.8826
 20
9.34382
 30
0.000000
  70
    32
  0
VERTEX
  8
0
  5
47D
 10
36.8317
 20
9.30336
 30
0.000000
  70
    32
  0
VERTEX
  8
0
  5
47E
 10
36.7806
 20
9.26302
 30
0.000000
  70
    32
  0
VERTEX
  8
0
  5
47F
 10
36.7295
 20
9.22281
 30
0.000000
  70
    32
  0
VERTEX
  8
0
  5
480
 10
36.6783
 20
9.18274
 30
0.000000
  70
    32
  0
VERTEX
  8
0
  5
481
 10
36.6269
 20
9.14279
 30
0.000000
  70
    32
  0
VERTEX
  8
0
  5
482
 10
36.5755
 20
9.10297
 30
0.000000
  70
    32
  0
VERTEX
  8
0
  5
483
 10
36.5239
 20
9.06329
 30
0.000000
  70
    32
  0
VERTEX
  8
0
  5
484
 10
36.4723
 20
9.02373
 30
0.000000
  70
    32
  0
VERTEX
  8
0
  5
485
 10
36.4205
 20
8.98431
 30
0.000000
  70
    32
  0
VERTEX
  8
0
  5
486
 10
36.3687
 20
8.94501
 30
0.000000
  70
    32
  0
VERTEX
  8
0
  5
487
 10
36.3167
 20
8.90585
 30
0.000000
  70
    32
  0
VERTEX
  8
0
  5
488
 10
36.2647
 20
8.86682
 30
0.000000
  70
    32
  0
VERTEX
  8
0
  5
489
 10
36.2125
 20
8.82792
 30
0.000000
  70
    32
  0
VERTEX
  8
0
  5
48A
 10
36.1603
 20
8.78916
 30
0.000000
  70
    32
  0
VERTEX
  8
0
  5
48B
 10
36.1079
 20
8.75052
 30
0.000000
  70
    32
  0
VERTEX
  8
0
  5
48C
 10
36.0555
 20
8.71202
 30
0.000000
  70
    32
  0
VERTEX
  8
0
  5
48D
 10
36.0029
 20
8.67365
 30
0.000000
  70
    32
  0
VERTEX
  8
0
  5
48E
 10
35.9503
 20
8.63542
 30
0.000000
  70
    32
  0
VERTEX
  8
0
  5
48F
 10
35.8975
 20
8.59731
 30
0.000000
  70
    32
  0
VERTEX
  8
0
  5
490
 10
35.8447
 20
8.55934
 30
0.000000
  70
    32
  0
VERTEX
  8
0
  5
491
 10
35.7918
 20
8.52150
 30
0.000000
  70
    32
  0
VERTEX
  8
0
  5
492
 10
35.7387
 20
8.48380
 30
0.000000
  70
    32
  0
VERTEX
  8
0
  5
493
 10
35.6856
 20
8.44623
 30
0.000000
  70
    32
  0
VERTEX
  8
0
  5
494
 10
35.6324
 20
8.40879
 30
0.000000
  70
    32
  0
VERTEX
  8
0
  5
495
 10
35.5791
 20
8.37149
 30
0.000000
  70
    32
  0
VERTEX
  8
0
  5
496
 10
35.5257
 20
8.33432
 30
0.000000
  70
    32
  0
VERTEX
  8
0
  5
497
 10
35.4722
 20
8.29729
 30
0.000000
  70
    32
  0
VERTEX
  8
0
  5
498
 10
35.4186
 20
8.26039
 30
0.000000
  70
    32
  0
VERTEX
  8
0
  5
499
 10
35.3649
 20
8.22363
 30
0.000000
  70
    32
  0
VERTEX
  8
0
  5
49A
 10
35.3112
 20
8.18700
 30
0.000000
  70
    32
  0
VERTEX
  8
0
  5
49B
 10
35.2573
 20
8.15050
 30
0.000000
  70
    32
  0
VERTEX
  8
0
  5
49C
 10
35.2033
 20
8.11414
 30
0.000000
  70
    32
  0
VERTEX
  8
0
  5
49D
 10
35.1493
 20
8.07792
 30
0.000000
  70
    32
  0
VERTEX
  8
0
  5
49E
 10
35.0952
 20
8.04183
 30
0.000000
  70
    32
  0
VERTEX
  8
0
  5
49F
 10
35.0410
 20
8.00588
 30
0.000000
  70
    32
  0
VERTEX
  8
0
  5
4A0
 10
34.9866
 20
7.97006
 30
0.000000
  70
    32
  0
VERTEX
  8
0
  5
4A1
 10
34.9322
 20
7.93438
 30
0.000000
  70
    32
  0
VERTEX
  8
0
  5
4A2
 10
34.8778
 20
7.89884
 30
0.000000
  70
    32
  0
VERTEX
  8
0
  5
4A3
 10
34.8232
 20
7.86343
 30
0.000000
  70
    32
  0
VERTEX
  8
0
  5
4A4
 10
34.7685
 20
7.82816
 30
0.000000
  70
    32
  0
VERTEX
  8
0
  5
4A5
 10
34.7138
 20
7.79302
 30
0.000000
  70
    32
  0
VERTEX
  8
0
  5
4A6
 10
34.6590
 20
7.75802
 30
0.000000
  70
    32
  0
VERTEX
  8
0
  5
4A7
 10
34.6041
 20
7.72315
 30
0.000000
  70
    32
  0
VERTEX
  8
0
  5
4A8
 10
34.5491
 20
7.68842
 30
0.000000
  70
    32
  0
VERTEX
  8
0
  5
4A9
 10
34.4940
 20
7.65383
 30
0.000000
  70
    32
  0
VERTEX
  8
0
  5
4AA
 10
34.4388
 20
7.61937
 30
0.000000
  70
    32
  0
VERTEX
  8
0
  5
4AB
 10
34.3836
 20
7.58504
 30
0.000000
  70
    32
  0
VERTEX
  8
0
  5
4AC
 10
34.3282
 20
7.55085
 30
0.000000
  70
    32
  0
VERTEX
  8
0
  5
4AD
 10
34.2728
 20
7.51680
 30
0.000000
  70
    32
  0
VERTEX
  8
0
  5
4AE
 10
34.2173
 20
7.48288
 30
0.000000
  70
    32
  0
VERTEX
  8
0
  5
4AF
 10
34.1618
 20
7.44909
 30
0.000000
  70
    32
  0
VERTEX
  8
0
  5
4B0
 10
34.1061
 20
7.41544
 30
0.000000
  70
    32
  0
VERTEX
  8
0
  5
4B1
 10
34.0504
 20
7.38193
 30
0.000000
  70
    32
  0
VERTEX
  8
0
  5
4B2
 10
33.9946
 20
7.34855
 30
0.000000
  70
    32
  0
VERTEX
  8
0
  5
4B3
 10
33.9387
 20
7.31530
 30
0.000000
  70
    32
  0
VERTEX
  8
0
  5
4B4
 10
33.8827
 20
7.28219
 30
0.000000
  70
    32
  0
VERTEX
  8
0
  5
4B5
 10
33.8266
 20
7.24921
 30
0.000000
  70
    32
  0
VERTEX
  8
0
  5
4B6
 10
33.7705
 20
7.21637
 30
0.000000
  70
    32
  0
VERTEX
  8
0
  5
4B7
 10
33.7143
 20
7.18366
 30
0.000000
  70
    32
  0
VERTEX
  8
0
  5
4B8
 10
33.6580
 20
7.15108
 30
0.000000
  70
    32
  0
VERTEX
  8
0
  5
4B9
 10
33.6016
 20
7.11864
 30
0.000000
  70
    32
  0
VERTEX
  8
0
  5
4BA
 10
33.5452
 20
7.08633
 30
0.000000
  70
    32
  0
VERTEX
  8
0
  5
4BB
 10
33.4887
 20
7.05416
 30
0.000000
  70
    32
  0
VERTEX
  8
0
  5
4BC
 10
33.4321
 20
7.02212
 30
0.000000
  70
    32
  0
VERTEX
  8
0
  5
4BD
 10
33.3754
 20
6.99021
 30
0.000000
  70
    32
  0
VERTEX
  8
0
  5
4BE
 10
33.3187
 20
6.95844
 30
0.000000
  70
    32
  0
VERTEX
  8
0
  5
4BF
 10
33.2618
 20
6.92680
 30
0.000000
  70
    32
  0
VERTEX
  8
0
  5
4C0
 10
33.2050
 20
6.89529
 30
0.000000
  70
    32
  0
VERTEX
  8
0
  5
4C1
 10
33.1480
 20
6.86392
 30
0.000000
  70
    32
  0
VERTEX
  8
0
  5
4C2
 10
33.0909
 20
6.83268
 30
0.000000
  70
    32
  0
VERTEX
  8
0
  5
4C3
 10
33.0338
 20
6.80157
 30
0.000000
  70
    32
  0
VERTEX
  8
0
  5
4C4
 10
32.9767
 20
6.77060
 30
0.000000
  70
    32
  0
VERTEX
  8
0
  5
4C5
 10
32.9194
 20
6.73976
 30
0.000000
  70
    32
  0
VERTEX
  8
0
  5
4C6
 10
32.8621
 20
6.70905
 30
0.000000
  70
    32
  0
VERTEX
  8
0
  5
4C7
 10
32.8047
 20
6.67848
 30
0.000000
  70
    32
  0
VERTEX
  8
0
  5
4C8
 10
32.7472
 20
6.64804
 30
0.000000
  70
    32
  0
VERTEX
  8
0
  5
4C9
 10
32.6897
 20
6.61773
 30
0.000000
  70
    32
  0
VERTEX
  8
0
  5
4CA
 10
32.6321
 20
6.58755
 30
0.000000
  70
    32
  0
VERTEX
  8
0
  5
4CB
 10
32.5744
 20
6.55751
 30
0.000000
  70
    32
  0
VERTEX
  8
0
  5
4CC
 10
32.5167
 20
6.52759
 30
0.000000
  70
    32
  0
VERTEX
  8
0
  5
4CD
 10
32.4588
 20
6.49781
 30
0.000000
  70
    32
  0
VERTEX
  8
0
  5
4CE
 10
32.4010
 20
6.46817
 30
0.000000
  70
    32
  0
VERTEX
  8
0
  5
4CF
 10
32.3430
 20
6.43865
 30
0.000000
  70
    32
  0
VERTEX
  8
0
  5
4D0
 10
32.2850
 20
6.40927
 30
0.000000
  70
    32
  0
VERTEX
  8
0
  5
4D1
 10
32.2269
 20
6.38002
 30
0.000000
  70
    32
  0
VERTEX
  8
0
  5
4D2
 10
32.1688
 20
6.35090
 30
0.000000
  70
    32
  0
VERTEX
  8
0
  5
4D3
 10
32.1106
 20
6.32191
 30
0.000000
  70
    32
  0
VERTEX
  8
0
  5
4D4
 10
32.0523
 20
6.29306
 30
0.000000
  70
    32
  0
VERTEX
  8
0
  5
4D5
 10
31.9940
 20
6.26433
 30
0.000000
  70
    32
  0
VERTEX
  8
0
  5
4D6
 10
31.9356
 20
6.23574
 30
0.000000
  70
    32
  0
VERTEX
  8
0
  5
4D7
 10
31.8771
 20
6.20728
 30
0.000000
  70
    32
  0
VERTEX
  8
0
  5
4D8
 10
31.8186
 20
6.17895
 30
0.000000
  70
    32
  0
VERTEX
  8
0
  5
4D9
 10
31.7600
 20
6.15075
 30
0.000000
  70
    32
  0
VERTEX
  8
0
  5
4DA
 10
31.7013
 20
6.12268
 30
0.000000
  70
    32
  0
VERTEX
  8
0
  5
4DB
 10
31.6426
 20
6.09475
 30
0.000000
  70
    32
  0
VERTEX
  8
0
  5
4DC
 10
31.5838
 20
6.06694
 30
0.000000
  70
    32
  0
VERTEX
  8
0
  5
4DD
 10
31.5250
 20
6.03926
 30
0.000000
  70
    32
  0
VERTEX
  8
0
  5
4DE
 10
31.4661
 20
6.01172
 30
0.000000
  70
    32
  0
VERTEX
  8
0
  5
4DF
 10
31.4071
 20
5.98430
 30
0.000000
  70
    32
  0
VERTEX
  8
0
  5
4E0
 10
31.3481
 20
5.95702
 30
0.000000
  70
    32
  0
VERTEX
  8
0
  5
4E1
 10
31.2890
 20
5.92986
 30
0.000000
  70
    32
  0
VERTEX
  8
0
  5
4E2
 10
31.2299
 20
5.90283
 30
0.000000
  70
    32
  0
VERTEX
  8
0
  5
4E3
 10
31.1707
 20
5.87593
 30
0.000000
  70
    32
  0
VERTEX
  8
0
  5
4E4
 10
31.1114
 20
5.84916
 30
0.000000
  70
    32
  0
VERTEX
  8
0
  5
4E5
 10
31.0521
 20
5.82252
 30
0.000000
  70
    32
  0
VERTEX
  8
0
  5
4E6
 10
30.9927
 20
5.79601
 30
0.000000
  70
    32
  0
VERTEX
  8
0
  5
4E7
 10
30.9333
 20
5.76963
 30
0.000000
  70
    32
  0
VERTEX
  8
0
  5
4E8
 10
30.8738
 20
5.74337
 30
0.000000
  70
    32
  0
VERTEX
  8
0
  5
4E9
 10
30.8143
 20
5.71724
 30
0.000000
  70
    32
  0
VERTEX
  8
0
  5
4EA
 10
30.7547
 20
5.69124
 30
0.000000
  70
    32
  0
VERTEX
  8
0
  5
4EB
 10
30.6950
 20
5.66537
 30
0.000000
  70
    32
  0
VERTEX
  8
0
  5
4EC
 10
30.6353
 20
5.63962
 30
0.000000
  70
    32
  0
VERTEX
  8
0
  5
4ED
 10
30.5756
 20
5.61400
 30
0.000000
  70
    32
  0
VERTEX
  8
0
  5
4EE
 10
30.5158
 20
5.58851
 30
0.000000
  70
    32
  0
VERTEX
  8
0
  5
4EF
 10
30.4559
 20
5.56314
 30
0.000000
  70
    32
  0
VERTEX
  8
0
  5
4F0
 10
30.3960
 20
5.53790
 30
0.000000
  70
    32
  0
VERTEX
  8
0
  5
4F1
 10
30.3360
 20
5.51279
 30
0.000000
  70
    32
  0
VERTEX
  8
0
  5
4F2
 10
30.2759
 20
5.48780
 30
0.000000
  70
    32
  0
VERTEX
  8
0
  5
4F3
 10
30.2159
 20
5.46294
 30
0.000000
  70
    32
  0
VERTEX
  8
0
  5
4F4
 10
30.1557
 20
5.43820
 30
0.000000
  70
    32
  0
VERTEX
  8
0
  5
4F5
 10
30.0955
 20
5.41359
 30
0.000000
  70
    32
  0
VERTEX
  8
0
  5
4F6
 10
30.0353
 20
5.38910
 30
0.000000
  70
    32
  0
VERTEX
  8
0
  5
4F7
 10
29.9750
 20
5.36474
 30
0.000000
  70
    32
  0
VERTEX
  8
0
  5
4F8
 10
29.9147
 20
5.34050
 30
0.000000
  70
    32
  0
VERTEX
  8
0
  5
4F9
 10
29.8543
 20
5.31639
 30
0.000000
  70
    32
  0
VERTEX
  8
0
  5
4FA
 10
29.7938
 20
5.29240
 30
0.000000
  70
    32
  0
VERTEX
  8
0
  5
4FB
 10
29.7333
 20
5.26853
 30
0.000000
  70
    32
  0
VERTEX
  8
0
  5
4FC
 10
29.6728
 20
5.24479
 30
0.000000
  70
    32
  0
VERTEX
  8
0
  5
4FD
 10
29.6122
 20
5.22118
 30
0.000000
  70
    32
  0
VERTEX
  8
0
  5
4FE
 10
29.5516
 20
5.19768
 30
0.000000
  70
    32
  0
VERTEX
  8
0
  5
4FF
 10
29.4909
 20
5.17431
 30
0.000000
  70
    32
  0
VERTEX
  8
0
  5
500
 10
29.4302
 20
5.15106
 30
0.000000
  70
    32
  0
VERTEX
  8
0
  5
501
 10
29.3694
 20
5.12794
 30
0.000000
  70
    32
  0
VERTEX
  8
0
  5
502
 10
29.3086
 20
5.10494
 30
0.000000
  70
    32
  0
VERTEX
  8
0
  5
503
 10
29.2477
 20
5.08206
 30
0.000000
  70
    32
  0
VERTEX
  8
0
  5
504
 10
29.1868
 20
5.05930
 30
0.000000
  70
    32
  0
VERTEX
  8
0
  5
505
 10
29.1258
 20
5.03666
 30
0.000000
  70
    32
  0
VERTEX
  8
0
  5
506
 10
29.0648
 20
5.01415
 30
0.000000
  70
    32
  0
VERTEX
  8
0
  5
507
 10
29.0037
 20
4.99175
 30
0.000000
  70
    32
  0
VERTEX
  8
0
  5
508
 10
28.9426
 20
4.96948
 30
0.000000
  70
    32
  0
VERTEX
  8
0
  5
509
 10
28.8815
 20
4.94733
 30
0.000000
  70
    32
  0
VERTEX
  8
0
  5
50A
 10
28.8203
 20
4.92530
 30
0.000000
  70
    32
  0
VERTEX
  8
0
  5
50B
 10
28.7591
 20
4.90339
 30
0.000000
  70
    32
  0
VERTEX
  8
0
  5
50C
 10
28.6978
 20
4.88160
 30
0.000000
  70
    32
  0
VERTEX
  8
0
  5
50D
 10
28.6365
 20
4.85993
 30
0.000000
  70
    32
  0
VERTEX
  8
0
  5
50E
 10
28.5752
 20
4.83838
 30
0.000000
  70
    32
  0
VERTEX
  8
0
  5
50F
 10
28.5138
 20
4.81696
 30
0.000000
  70
    32
  0
VERTEX
  8
0
  5
510
 10
28.4523
 20
4.79565
 30
0.000000
  70
    32
  0
VERTEX
  8
0
  5
511
 10
28.3908
 20
4.77446
 30
0.000000
  70
    32
  0
VERTEX
  8
0
  5
512
 10
28.3293
 20
4.75338
 30
0.000000
  70
    32
  0
VERTEX
  8
0
  5
513
 10
28.2678
 20
4.73243
 30
0.000000
  70
    32
  0
VERTEX
  8
0
  5
514
 10
28.2062
 20
4.71160
 30
0.000000
  70
    32
  0
VERTEX
  8
0
  5
515
 10
28.1445
 20
4.69088
 30
0.000000
  70
    32
  0
VERTEX
  8
0
  5
516
 10
28.0828
 20
4.67028
 30
0.000000
  70
    32
  0
VERTEX
  8
0
  5
517
 10
28.0211
 20
4.64980
 30
0.000000
  70
    32
  0
VERTEX
  8
0
  5
518
 10
27.9594
 20
4.62944
 30
0.000000
  70
    32
  0
VERTEX
  8
0
  5
519
 10
27.8976
 20
4.60920
 30
0.000000
  70
    32
  0
VERTEX
  8
0
  5
51A
 10
27.8357
 20
4.58907
 30
0.000000
  70
    32
  0
VERTEX
  8
0
  5
51B
 10
27.7739
 20
4.56906
 30
0.000000
  70
    32
  0
VERTEX
  8
0
  5
51C
 10
27.7120
 20
4.54916
 30
0.000000
  70
    32
  0
VERTEX
  8
0
  5
51D
 10
27.6500
 20
4.52938
 30
0.000000
  70
    32
  0
VERTEX
  8
0
  5
51E
 10
27.5880
 20
4.50972
 30
0.000000
  70
    32
  0
VERTEX
  8
0
  5
51F
 10
27.5260
 20
4.49017
 30
0.000000
  70
    32
  0
VERTEX
  8
0
  5
520
 10
27.4640
 20
4.47074
 30
0.000000
  70
    32
  0
VERTEX
  8
0
  5
521
 10
27.4019
 20
4.45142
 30
0.000000
  70
    32
  0
VERTEX
  8
0
  5
522
 10
27.3398
 20
4.43222
 30
0.000000
  70
    32
  0
VERTEX
  8
0
  5
523
 10
27.2776
 20
4.41313
 30
0.000000
  70
    32
  0
VERTEX
  8
0
  5
524
 10
27.2154
 20
4.39416
 30
0.000000
  70
    32
  0
VERTEX
  8
0
  5
525
 10
27.1532
 20
4.37530
 30
0.000000
  70
    32
  0
VERTEX
  8
0
  5
526
 10
27.0909
 20
4.35655
 30
0.000000
  70
    32
  0
VERTEX
  8
0
  5
527
 10
27.0286
 20
4.33792
 30
0.000000
  70
    32
  0
VERTEX
  8
0
  5
528
 10
26.9663
 20
4.31940
 30
0.000000
  70
    32
  0
VERTEX
  8
0
  5
529
 10
26.9039
 20
4.30100
 30
0.000000
  70
    32
  0
VERTEX
  8
0
  5
52A
 10
26.8416
 20
4.28270
 30
0.000000
  70
    32
  0
VERTEX
  8
0
  5
52B
 10
26.7791
 20
4.26452
 30
0.000000
  70
    32
  0
VERTEX
  8
0
  5
52C
 10
26.7167
 20
4.24645
 30
0.000000
  70
    32
  0
VERTEX
  8
0
  5
52D
 10
26.6542
 20
4.22850
 30
0.000000
  70
    32
  0
VERTEX
  8
0
  5
52E
 10
26.5917
 20
4.21065
 30
0.000000
  70
    32
  0
VERTEX
  8
0
  5
52F
 10
26.5291
 20
4.19292
 30
0.000000
  70
    32
  0
VERTEX
  8
0
  5
530
 10
26.4665
 20
4.17530
 30
0.000000
  70
    32
  0
VERTEX
  8
0
  5
531
 10
26.4039
 20
4.15779
 30
0.000000
  70
    32
  0
VERTEX
  8
0
  5
532
 10
26.3413
 20
4.14039
 30
0.000000
  70
    32
  0
VERTEX
  8
0
  5
533
 10
26.2786
 20
4.12309
 30
0.000000
  70
    32
  0
VERTEX
  8
0
  5
534
 10
26.2159
 20
4.10592
 30
0.000000
  70
    32
  0
VERTEX
  8
0
  5
535
 10
26.1532
 20
4.08885
 30
0.000000
  70
    32
  0
VERTEX
  8
0
  5
536
 10
26.0904
 20
4.07188
 30
0.000000
  70
    32
  0
VERTEX
  8
0
  5
537
 10
26.0276
 20
4.05503
 30
0.000000
  70
    32
  0
VERTEX
  8
0
  5
538
 10
25.9648
 20
4.03829
 30
0.000000
  70
    32
  0
VERTEX
  8
0
  5
539
 10
25.9019
 20
4.02166
 30
0.000000
  70
    32
  0
VERTEX
  8
0
  5
53A
 10
25.8391
 20
4.00513
 30
0.000000
  70
    32
  0
VERTEX
  8
0
  5
53B
 10
25.7762
 20
3.98872
 30
0.000000
  70
    32
  0
VERTEX
  8
0
  5
53C
 10
25.7132
 20
3.97241
 30
0.000000
  70
    32
  0
VERTEX
  8
0
  5
53D
 10
25.6503
 20
3.95621
 30
0.000000
  70
    32
  0
VERTEX
  8
0
  5
53E
 10
25.5873
 20
3.94012
 30
0.000000
  70
    32
  0
VERTEX
  8
0
  5
53F
 10
25.5243
 20
3.92413
 30
0.000000
  70
    32
  0
VERTEX
  8
0
  5
540
 10
25.4613
 20
3.90825
 30
0.000000
  70
    32
  0
VERTEX
  8
0
  5
541
 10
25.3982
 20
3.89248
 30
0.000000
  70
    32
  0
VERTEX
  8
0
  5
542
 10
25.3351
 20
3.87682
 30
0.000000
  70
    32
  0
VERTEX
  8
0
  5
543
 10
25.2720
 20
3.86126
 30
0.000000
  70
    32
  0
VERTEX
  8
0
  5
544
 10
25.2089
 20
3.84580
 30
0.000000
  70
    32
  0
VERTEX
  8
0
  5
545
 10
25.1457
 20
3.83046
 30
0.000000
  70
    32
  0
VERTEX
  8
0
  5
546
 10
25.0826
 20
3.81521
 30
0.000000
  70
    32
  0
SEQEND
  8
0
  5
547
  0
POLYLINE
  8
0
  5
548
  66
     1
 10
0.000000
 20
0.000000
 30
0.000000
  70
     8
  0
VERTEX
  8
0
  5
549
 10
16.4500
 20
0.944797
 30
0.000000
  70
    32
  0
VERTEX
  8
0
  5
54A
 10
16.4108
 20
0.949802
 30
0.000000
  70
    32
  0
VERTEX
  8
0
  5
54B
 10
16.3716
 20
0.955045
 30
0.000000
  70
    32
  0
VERTEX
  8
0
  5
54C
 10
16.3325
 20
0.960527
 30
0.000000
  70
    32
  0
VERTEX
  8
0
  5
54D
 10
16.2934
 20
0.966251
 30
0.000000
  70
    32
  0
VERTEX
  8
0
  5
54E
 10
16.2543
 20
0.972217
 30
0.000000
  70
    32
  0
VERTEX
  8
0
  5
54F
 10
16.2153
 20
0.978428
 30
0.000000
  70
    32
  0
VERTEX
  8
0
  5
550
 10
16.1763
 20
0.984885
 30
0.000000
  70
    32
  0
VERTEX
  8
0
  5
551
 10
16.1373
 20
0.991589
 30
0.000000
  70
    32
  0
VERTEX
  8
0
  5
552
 10
16.0984
 20
0.998542
 30
0.000000
  70
    32
  0
VERTEX
  8
0
  5
553
 10
16.0595
 20
1.00575
 30
0.000000
  70
    32
  0
VERTEX
  8
0
  5
554
 10
16.0207
 20
1.01320
 30
0.000000
  70
    32
  0
VERTEX
  8
0
  5
555
 10
15.9819
 20
1.02091
 30
0.000000
  70
    32
  0
VERTEX
  8
0
  5
556
 10
15.9431
 20
1.02888
 30
0.000000
  70
    32
  0
VERTEX
  8
0
  5
557
 10
15.9044
 20
1.03710
 30
0.000000
  70
    32
  0
VERTEX
  8
0
  5
558
 10
15.8657
 20
1.04558
 30
0.000000
  70
    32
  0
VERTEX
  8
0
  5
559
 10
15.8270
 20
1.05430
 30
0.000000
  70
    32
  0
VERTEX
  8
0
  5
55A
 10
15.7884
 20
1.06329
 30
0.000000
  70
    32
  0
VERTEX
  8
0
  5
55B
 10
15.7499
 20
1.07252
 30
0.000000
  70
    32
  0
VERTEX
  8
0
  5
55C
 10
15.7114
 20
1.08201
 30
0.000000
  70
    32
  0
VERTEX
  8
0
  5
55D
 10
15.6729
 20
1.09174
 30
0.000000
  70
    32
  0
VERTEX
  8
0
  5
55E
 10
15.6346
 20
1.10172
 30
0.000000
  70
    32
  0
VERTEX
  8
0
  5
55F
 10
15.5962
 20
1.11196
 30
0.000000
  70
    32
  0
VERTEX
  8
0
  5
560
 10
15.5579
 20
1.12244
 30
0.000000
  70
    32
  0
VERTEX
  8
0
  5
561
 10
15.5197
 20
1.13316
 30
0.000000
  70
    32
  0
VERTEX
  8
0
  5
562
 10
15.4816
 20
1.14413
 30
0.000000
  70
    32
  0
VERTEX
  8
0
  5
563
 10
15.4434
 20
1.15534
 30
0.000000
  70
    32
  0
VERTEX
  8
0
  5
564
 10
15.4054
 20
1.16680
 30
0.000000
  70
    32
  0
VERTEX
  8
0
  5
565
 10
15.3674
 20
1.17850
 30
0.000000
  70
    32
  0
VERTEX
  8
0
  5
566
 10
15.3295
 20
1.19044
 30
0.000000
  70
    32
  0
VERTEX
  8
0
  5
567
 10
15.2917
 20
1.20262
 30
0.000000
  70
    32
  0
VERTEX
  8
0
  5
568
 10
15.2539
 20
1.21504
 30
0.000000
  70
    32
  0
VERTEX
  8
0
  5
569
 10
15.2162
 20
1.22770
 30
0.000000
  70
    32
  0
VERTEX
  8
0
  5
56A
 10
15.1786
 20
1.24059
 30
0.000000
  70
    32
  0
VERTEX
  8
0
  5
56B
 10
15.1411
 20
1.25372
 30
0.000000
  70
    32
  0
VERTEX
  8
0
  5
56C
 10
15.1036
 20
1.26709
 30
0.000000
  70
    32
  0
VERTEX
  8
0
  5
56D
 10
15.0662
 20
1.28069
 30
0.000000
  70
    32
  0
VERTEX
  8
0
  5
56E
 10
15.0289
 20
1.29452
 30
0.000000
  70
    32
  0
VERTEX
  8
0
  5
56F
 10
14.9917
 20
1.30859
 30
0.000000
  70
    32
  0
VERTEX
  8
0
  5
570
 10
14.9545
 20
1.32289
 30
0.000000
  70
    32
  0
VERTEX
  8
0
  5
571
 10
14.9175
 20
1.33742
 30
0.000000
  70
    32
  0
VERTEX
  8
0
  5
572
 10
14.8805
 20
1.35217
 30
0.000000
  70
    32
  0
VERTEX
  8
0
  5
573
 10
14.8436
 20
1.36716
 30
0.000000
  70
    32
  0
VERTEX
  8
0
  5
574
 10
14.8068
 20
1.38237
 30
0.000000
  70
    32
  0
VERTEX
  8
0
  5
575
 10
14.7701
 20
1.39781
 30
0.000000
  70
    32
  0
VERTEX
  8
0
  5
576
 10
14.7335
 20
1.41348
 30
0.000000
  70
    32
  0
VERTEX
  8
0
  5
577
 10
14.6970
 20
1.42937
 30
0.000000
  70
    32
  0
VERTEX
  8
0
  5
578
 10
14.6606
 20
1.44549
 30
0.000000
  70
    32
  0
VERTEX
  8
0
  5
579
 10
14.6243
 20
1.46182
 30
0.000000
  70
    32
  0
VERTEX
  8
0
  5
57A
 10
14.5881
 20
1.47838
 30
0.000000
  70
    32
  0
VERTEX
  8
0
  5
57B
 10
14.5520
 20
1.49516
 30
0.000000
  70
    32
  0
VERTEX
  8
0
  5
57C
 10
14.5160
 20
1.51216
 30
0.000000
  70
    32
  0
VERTEX
  8
0
  5
57D
 10
14.4801
 20
1.52938
 30
0.000000
  70
    32
  0
VERTEX
  8
0
  5
57E
 10
14.4444
 20
1.54681
 30
0.000000
  70
    32
  0
VERTEX
  8
0
  5
57F
 10
14.4087
 20
1.56446
 30
0.000000
  70
    32
  0
VERTEX
  8
0
  5
580
 10
14.3731
 20
1.58233
 30
0.000000
  70
    32
  0
VERTEX
  8
0
  5
581
 10
14.3377
 20
1.60042
 30
0.000000
  70
    32
  0
VERTEX
  8
0
  5
582
 10
14.3024
 20
1.61871
 30
0.000000
  70
    32
  0
VERTEX
  8
0
  5
583
 10
14.2672
 20
1.63722
 30
0.000000
  70
    32
  0
VERTEX
  8
0
  5
584
 10
14.2321
 20
1.65595
 30
0.000000
  70
    32
  0
VERTEX
  8
0
  5
585
 10
14.1971
 20
1.67488
 30
0.000000
  70
    32
  0
VERTEX
  8
0
  5
586
 10
14.1622
 20
1.69402
 30
0.000000
  70
    32
  0
VERTEX
  8
0
  5
587
 10
14.1275
 20
1.71337
 30
0.000000
  70
    32
  0
VERTEX
  8
0
  5
588
 10
14.0929
 20
1.73293
 30
0.000000
  70
    32
  0
VERTEX
  8
0
  5
589
 10
14.0584
 20
1.75270
 30
0.000000
  70
    32
  0
VERTEX
  8
0
  5
58A
 10
14.0241
 20
1.77267
 30
0.000000
  70
    32
  0
VERTEX
  8
0
  5
58B
 10
13.9899
 20
1.79285
 30
0.000000
  70
    32
  0
VERTEX
  8
0
  5
58C
 10
13.9558
 20
1.81324
 30
0.000000
  70
    32
  0
VERTEX
  8
0
  5
58D
 10
13.9219
 20
1.83382
 30
0.000000
  70
    32
  0
VERTEX
  8
0
  5
58E
 10
13.8881
 20
1.85461
 30
0.000000
  70
    32
  0
VERTEX
  8
0
  5
58F
 10
13.8544
 20
1.87560
 30
0.000000
  70
    32
  0
VERTEX
  8
0
  5
590
 10
13.8209
 20
1.89679
 30
0.000000
  70
    32
  0
VERTEX
  8
0
  5
591
 10
13.7875
 20
1.91818
 30
0.000000
  70
    32
  0
VERTEX
  8
0
  5
592
 10
13.7542
 20
1.93976
 30
0.000000
  70
    32
  0
VERTEX
  8
0
  5
593
 10
13.7211
 20
1.96155
 30
0.000000
  70
    32
  0
VERTEX
  8
0
  5
594
 10
13.6882
 20
1.98353
 30
0.000000
  70
    32
  0
VERTEX
  8
0
  5
595
 10
13.6553
 20
2.00570
 30
0.000000
  70
    32
  0
VERTEX
  8
0
  5
596
 10
13.6227
 20
2.02807
 30
0.000000
  70
    32
  0
VERTEX
  8
0
  5
597
 10
13.5901
 20
2.05063
 30
0.000000
  70
    32
  0
VERTEX
  8
0
  5
598
 10
13.5577
 20
2.07338
 30
0.000000
  70
    32
  0
VERTEX
  8
0
  5
599
 10
13.5255
 20
2.09632
 30
0.000000
  70
    32
  0
VERTEX
  8
0
  5
59A
 10
13.4934
 20
2.11944
 30
0.000000
  70
    32
  0
VERTEX
  8
0
  5
59B
 10
13.4614
 20
2.14276
 30
0.000000
  70
    32
  0
VERTEX
  8
0
  5
59C
 10
13.4296
 20
2.16625
 30
0.000000
  70
    32
  0
VERTEX
  8
0
  5
59D
 10
13.3979
 20
2.18994
 30
0.000000
  70
    32
  0
VERTEX
  8
0
  5
59E
 10
13.3664
 20
2.21380
 30
0.000000
  70
    32
  0
VERTEX
  8
0
  5
59F
 10
13.3350
 20
2.23785
 30
0.000000
  70
    32
  0
VERTEX
  8
0
  5
5A0
 10
13.3037
 20
2.26208
 30
0.000000
  70
    32
  0
VERTEX
  8
0
  5
5A1
 10
13.2726
 20
2.28649
 30
0.000000
  70
    32
  0
VERTEX
  8
0
  5
5A2
 10
13.2417
 20
2.31107
 30
0.000000
  70
    32
  0
VERTEX
  8
0
  5
5A3
 10
13.2108
 20
2.33583
 30
0.000000
  70
    32
  0
VERTEX
  8
0
  5
5A4
 10
13.1802
 20
2.36077
 30
0.000000
  70
    32
  0
VERTEX
  8
0
  5
5A5
 10
13.1496
 20
2.38588
 30
0.000000
  70
    32
  0
VERTEX
  8
0
  5
5A6
 10
13.1192
 20
2.41116
 30
0.000000
  70
    32
  0
VERTEX
  8
0
  5
5A7
 10
13.0890
 20
2.43662
 30
0.000000
  70
    32
  0
VERTEX
  8
0
  5
5A8
 10
13.0589
 20
2.46225
 30
0.000000
  70
    32
  0
VERTEX
  8
0
  5
5A9
 10
13.0289
 20
2.48804
 30
0.000000
  70
    32
  0
VERTEX
  8
0
  5
5AA
 10
12.9991
 20
2.51400
 30
0.000000
  70
    32
  0
VERTEX
  8
0
  5
5AB
 10
12.9695
 20
2.54013
 30
0.000000
  70
    32
  0
VERTEX
  8
0
  5
5AC
 10
12.9399
 20
2.56643
 30
0.000000
  70
    32
  0
VERTEX
  8
0
  5
5AD
 10
12.9106
 20
2.59289
 30
0.000000
  70
    32
  0
VERTEX
  8
0
  5
5AE
 10
12.8813
 20
2.61951
 30
0.000000
  70
    32
  0
VERTEX
  8
0
  5
5AF
 10
12.8522
 20
2.64629
 30
0.000000
  70
    32
  0
VERTEX
  8
0
  5
5B0
 10
12.8233
 20
2.67323
 30
0.000000
  70
    32
  0
VERTEX
  8
0
  5
5B1
 10
12.7945
 20
2.70033
 30
0.000000
  70
    32
  0
VERTEX
  8
0
  5
5B2
 10
12.7659
 20
2.72758
 30
0.000000
  70
    32
  0
VERTEX
  8
0
  5
5B3
 10
12.7373
 20
2.75499
 30
0.000000
  70
    32
  0
VERTEX
  8
0
  5
5B4
 10
12.7090
 20
2.78256
 30
0.000000
  70
    32
  0
VERTEX
  8
0
  5
5B5
 10
12.6808
 20
2.81027
 30
0.000000
  70
    32
  0
VERTEX
  8
0
  5
5B6
 10
12.6527
 20
2.83814
 30
0.000000
  70
    32
  0
VERTEX
  8
0
  5
5B7
 10
12.6248
 20
2.86616
 30
0.000000
  70
    32
  0
VERTEX
  8
0
  5
5B8
 10
12.5970
 20
2.89432
 30
0.000000
  70
    32
  0
VERTEX
  8
0
  5
5B9
 10
12.5694
 20
2.92263
 30
0.000000
  70
    32
  0
VERTEX
  8
0
  5
5BA
 10
12.5419
 20
2.95109
 30
0.000000
  70
    32
  0
VERTEX
  8
0
  5
5BB
 10
12.5146
 20
2.97969
 30
0.000000
  70
    32
  0
VERTEX
  8
0
  5
5BC
 10
12.4874
 20
3.00843
 30
0.000000
  70
    32
  0
VERTEX
  8
0
  5
5BD
 10
12.4604
 20
3.03732
 30
0.000000
  70
    32
  0
VERTEX
  8
0
  5
5BE
 10
12.4335
 20
3.06634
 30
0.000000
  70
    32
  0
VERTEX
  8
0
  5
5BF
 10
12.4068
 20
3.09550
 30
0.000000
  70
    32
  0
VERTEX
  8
0
  5
5C0
 10
12.3802
 20
3.12480
 30
0.000000
  70
    32
  0
VERTEX
  8
0
  5
5C1
 10
12.3537
 20
3.15423
 30
0.000000
  70
    32
  0
VERTEX
  8
0
  5
5C2
 10
12.3275
 20
3.18379
 30
0.000000
  70
    32
  0
VERTEX
  8
0
  5
5C3
 10
12.3013
 20
3.21349
 30
0.000000
  70
    32
  0
VERTEX
  8
0
  5
5C4
 10
12.2753
 20
3.24332
 30
0.000000
  70
    32
  0
VERTEX
  8
0
  5
5C5
 10
12.2495
 20
3.27328
 30
0.000000
  70
    32
  0
VERTEX
  8
0
  5
5C6
 10
12.2238
 20
3.30336
 30
0.000000
  70
    32
  0
VERTEX
  8
0
  5
5C7
 10
12.1982
 20
3.33358
 30
0.000000
  70
    32
  0
VERTEX
  8
0
  5
5C8
 10
12.1729
 20
3.36391
 30
0.000000
  70
    32
  0
VERTEX
  8
0
  5
5C9
 10
12.1476
 20
3.39438
 30
0.000000
  70
    32
  0
VERTEX
  8
0
  5
5CA
 10
12.1225
 20
3.42496
 30
0.000000
  70
    32
  0
VERTEX
  8
0
  5
5CB
 10
12.0975
 20
3.45567
 30
0.000000
  70
    32
  0
VERTEX
  8
0
  5
5CC
 10
12.0727
 20
3.48650
 30
0.000000
  70
    32
  0
VERTEX
  8
0
  5
5CD
 10
12.0481
 20
3.51744
 30
0.000000
  70
    32
  0
VERTEX
  8
0
  5
5CE
 10
12.0236
 20
3.54851
 30
0.000000
  70
    32
  0
VERTEX
  8
0
  5
5CF
 10
11.9992
 20
3.57969
 30
0.000000
  70
    32
  0
VERTEX
  8
0
  5
5D0
 10
11.9750
 20
3.61098
 30
0.000000
  70
    32
  0
VERTEX
  8
0
  5
5D1
 10
11.9509
 20
3.64239
 30
0.000000
  70
    32
  0
VERTEX
  8
0
  5
5D2
 10
11.9269
 20
3.67391
 30
0.000000
  70
    32
  0
VERTEX
  8
0
  5
5D3
 10
11.9032
 20
3.70554
 30
0.000000
  70
    32
  0
VERTEX
  8
0
  5
5D4
 10
11.8795
 20
3.73728
 30
0.000000
  70
    32
  0
VERTEX
  8
0
  5
5D5
 10
11.8560
 20
3.76913
 30
0.000000
  70
    32
  0
VERTEX
  8
0
  5
5D6
 10
11.8326
 20
3.80108
 30
0.000000
  70
    32
  0
VERTEX
  8
0
  5
5D7
 10
11.8094
 20
3.83314
 30
0.000000
  70
    32
  0
VERTEX
  8
0
  5
5D8
 10
11.7864
 20
3.86531
 30
0.000000
  70
    32
  0
VERTEX
  8
0
  5
5D9
 10
11.7634
 20
3.89757
 30
0.000000
  70
    32
  0
VERTEX
  8
0
  5
5DA
 10
11.7406
 20
3.92994
 30
0.000000
  70
    32
  0
VERTEX
  8
0
  5
5DB
 10
11.7180
 20
3.96241
 30
0.000000
  70
    32
  0
VERTEX
  8
0
  5
5DC
 10
11.6955
 20
3.99498
 30
0.000000
  70
    32
  0
VERTEX
  8
0
  5
5DD
 10
11.6731
 20
4.02764
 30
0.000000
  70
    32
  0
VERTEX
  8
0
  5
5DE
 10
11.6509
 20
4.06041
 30
0.000000
  70
    32
  0
VERTEX
  8
0
  5
5DF
 10
11.6288
 20
4.09326
 30
0.000000
  70
    32
  0
VERTEX
  8
0
  5
5E0
 10
11.6069
 20
4.12621
 30
0.000000
  70
    32
  0
VERTEX
  8
0
  5
5E1
 10
11.5851
 20
4.15925
 30
0.000000
  70
    32
  0
VERTEX
  8
0
  5
5E2
 10
11.5634
 20
4.19238
 30
0.000000
  70
    32
  0
VERTEX
  8
0
  5
5E3
 10
11.5419
 20
4.22560
 30
0.000000
  70
    32
  0
VERTEX
  8
0
  5
5E4
 10
11.5205
 20
4.25891
 30
0.000000
  70
    32
  0
VERTEX
  8
0
  5
5E5
 10
11.4992
 20
4.29231
 30
0.000000
  70
    32
  0
VERTEX
  8
0
  5
5E6
 10
11.4781
 20
4.32579
 30
0.000000
  70
    32
  0
VERTEX
  8
0
  5
5E7
 10
11.4572
 20
4.35935
 30
0.000000
  70
    32
  0
VERTEX
  8
0
  5
5E8
 10
11.4363
 20
4.39300
 30
0.000000
  70
    32
  0
VERTEX
  8
0
  5
5E9
 10
11.4156
 20
4.42673
 30
0.000000
  70
    32
  0
VERTEX
  8
0
  5
5EA
 10
11.3951
 20
4.46054
 30
0.000000
  70
    32
  0
VERTEX
  8
0
  5
5EB
 10
11.3747
 20
4.49443
 30
0.000000
  70
    32
  0
VERTEX
  8
0
  5
5EC
 10
11.3544
 20
4.52839
 30
0.000000
  70
    32
  0
VERTEX
  8
0
  5
5ED
 10
11.3342
 20
4.56244
 30
0.000000
  70
    32
  0
VERTEX
  8
0
  5
5EE
 10
11.3142
 20
4.59656
 30
0.000000
  70
    32
  0
VERTEX
  8
0
  5
5EF
 10
11.2943
 20
4.63075
 30
0.000000
  70
    32
  0
VERTEX
  8
0
  5
5F0
 10
11.2746
 20
4.66502
 30
0.000000
  70
    32
  0
VERTEX
  8
0
  5
5F1
 10
11.2550
 20
4.69937
 30
0.000000
  70
    32
  0
VERTEX
  8
0
  5
5F2
 10
11.2355
 20
4.73378
 30
0.000000
  70
    32
  0
VERTEX
  8
0
  5
5F3
 10
11.2161
 20
4.76827
 30
0.000000
  70
    32
  0
VERTEX
  8
0
  5
5F4
 10
11.1969
 20
4.80283
 30
0.000000
  70
    32
  0
VERTEX
  8
0
  5
5F5
 10
11.1778
 20
4.83747
 30
0.000000
  70
    32
  0
VERTEX
  8
0
  5
5F6
 10
11.1588
 20
4.87217
 30
0.000000
  70
    32
  0
VERTEX
  8
0
  5
5F7
 10
11.1400
 20
4.90693
 30
0.000000
  70
    32
  0
VERTEX
  8
0
  5
5F8
 10
11.1213
 20
4.94177
 30
0.000000
  70
    32
  0
VERTEX
  8
0
  5
5F9
 10
11.1027
 20
4.97667
 30
0.000000
  70
    32
  0
VERTEX
  8
0
  5
5FA
 10
11.0842
 20
5.01164
 30
0.000000
  70
    32
  0
VERTEX
  8
0
  5
5FB
 10
11.0659
 20
5.04668
 30
0.000000
  70
    32
  0
VERTEX
  8
0
  5
5FC
 10
11.0477
 20
5.08178
 30
0.000000
  70
    32
  0
VERTEX
  8
0
  5
5FD
 10
11.0296
 20
5.11694
 30
0.000000
  70
    32
  0
VERTEX
  8
0
  5
5FE
 10
11.0116
 20
5.15216
 30
0.000000
  70
    32
  0
VERTEX
  8
0
  5
5FF
 10
10.9938
 20
5.18745
 30
0.000000
  70
    32
  0
VERTEX
  8
0
  5
600
 10
10.9760
 20
5.22280
 30
0.000000
  70
    32
  0
VERTEX
  8
0
  5
601
 10
10.9584
 20
5.25820
 30
0.000000
  70
    32
  0
VERTEX
  8
0
  5
602
 10
10.9409
 20
5.29367
 30
0.000000
  70
    32
  0
VERTEX
  8
0
  5
603
 10
10.9236
 20
5.32919
 30
0.000000
  70
    32
  0
VERTEX
  8
0
  5
604
 10
10.9063
 20
5.36477
 30
0.000000
  70
    32
  0
VERTEX
  8
0
  5
605
 10
10.8892
 20
5.40041
 30
0.000000
  70
    32
  0
VERTEX
  8
0
  5
606
 10
10.8721
 20
5.43610
 30
0.000000
  70
    32
  0
VERTEX
  8
0
  5
607
 10
10.8552
 20
5.47185
 30
0.000000
  70
    32
  0
VERTEX
  8
0
  5
608
 10
10.8385
 20
5.50765
 30
0.000000
  70
    32
  0
VERTEX
  8
0
  5
609
 10
10.8218
 20
5.54350
 30
0.000000
  70
    32
  0
VERTEX
  8
0
  5
60A
 10
10.8052
 20
5.57941
 30
0.000000
  70
    32
  0
VERTEX
  8
0
  5
60B
 10
10.7888
 20
5.61536
 30
0.000000
  70
    32
  0
VERTEX
  8
0
  5
60C
 10
10.7724
 20
5.65137
 30
0.000000
  70
    32
  0
VERTEX
  8
0
  5
60D
 10
10.7562
 20
5.68743
 30
0.000000
  70
    32
  0
VERTEX
  8
0
  5
60E
 10
10.7401
 20
5.72353
 30
0.000000
  70
    32
  0
VERTEX
  8
0
  5
60F
 10
10.7241
 20
5.75969
 30
0.000000
  70
    32
  0
VERTEX
  8
0
  5
610
 10
10.7082
 20
5.79589
 30
0.000000
  70
    32
  0
VERTEX
  8
0
  5
611
 10
10.6924
 20
5.83214
 30
0.000000
  70
    32
  0
VERTEX
  8
0
  5
612
 10
10.6767
 20
5.86844
 30
0.000000
  70
    32
  0
VERTEX
  8
0
  5
613
 10
10.6611
 20
5.90479
 30
0.000000
  70
    32
  0
VERTEX
  8
0
  5
614
 10
10.6456
 20
5.94118
 30
0.000000
  70
    32
  0
VERTEX
  8
0
  5
615
 10
10.6303
 20
5.97762
 30
0.000000
  70
    32
  0
VERTEX
  8
0
  5
616
 10
10.6150
 20
6.01410
 30
0.000000
  70
    32
  0
VERTEX
  8
0
  5
617
 10
10.5999
 20
6.05062
 30
0.000000
  70
    32
  0
VERTEX
  8
0
  5
618
 10
10.5848
 20
6.08719
 30
0.000000
  70
    32
  0
VERTEX
  8
0
  5
619
 10
10.5699
 20
6.12381
 30
0.000000
  70
    32
  0
VERTEX
  8
0
  5
61A
 10
10.5550
 20
6.16046
 30
0.000000
  70
    32
  0
VERTEX
  8
0
  5
61B
 10
10.5403
 20
6.19716
 30
0.000000
  70
    32
  0
VERTEX
  8
0
  5
61C
 10
10.5256
 20
6.23390
 30
0.000000
  70
    32
  0
VERTEX
  8
0
  5
61D
 10
10.5111
 20
6.27068
 30
0.000000
  70
    32
  0
VERTEX
  8
0
  5
61E
 10
10.4966
 20
6.30750
 30
0.000000
  70
    32
  0
VERTEX
  8
0
  5
61F
 10
10.4823
 20
6.34437
 30
0.000000
  70
    32
  0
VERTEX
  8
0
  5
620
 10
10.4681
 20
6.38127
 30
0.000000
  70
    32
  0
VERTEX
  8
0
  5
621
 10
10.4539
 20
6.41821
 30
0.000000
  70
    32
  0
VERTEX
  8
0
  5
622
 10
10.4399
 20
6.45519
 30
0.000000
  70
    32
  0
VERTEX
  8
0
  5
623
 10
10.4259
 20
6.49220
 30
0.000000
  70
    32
  0
VERTEX
  8
0
  5
624
 10
10.4120
 20
6.52926
 30
0.000000
  70
    32
  0
VERTEX
  8
0
  5
625
 10
10.3983
 20
6.56635
 30
0.000000
  70
    32
  0
VERTEX
  8
0
  5
626
 10
10.3846
 20
6.60347
 30
0.000000
  70
    32
  0
VERTEX
  8
0
  5
627
 10
10.3710
 20
6.64064
 30
0.000000
  70
    32
  0
VERTEX
  8
0
  5
628
 10
10.3576
 20
6.67783
 30
0.000000
  70
    32
  0
VERTEX
  8
0
  5
629
 10
10.3442
 20
6.71507
 30
0.000000
  70
    32
  0
VERTEX
  8
0
  5
62A
 10
10.3309
 20
6.75233
 30
0.000000
  70
    32
  0
VERTEX
  8
0
  5
62B
 10
10.3177
 20
6.78963
 30
0.000000
  70
    32
  0
VERTEX
  8
0
  5
62C
 10
10.3045
 20
6.82696
 30
0.000000
  70
    32
  0
VERTEX
  8
0
  5
62D
 10
10.2915
 20
6.86433
 30
0.000000
  70
    32
  0
VERTEX
  8
0
  5
62E
 10
10.2786
 20
6.90173
 30
0.000000
  70
    32
  0
VERTEX
  8
0
  5
62F
 10
10.2657
 20
6.93915
 30
0.000000
  70
    32
  0
VERTEX
  8
0
  5
630
 10
10.2530
 20
6.97661
 30
0.000000
  70
    32
  0
VERTEX
  8
0
  5
631
 10
10.2403
 20
7.01410
 30
0.000000
  70
    32
  0
VERTEX
  8
0
  5
632
 10
10.2277
 20
7.05162
 30
0.000000
  70
    32
  0
VERTEX
  8
0
  5
633
 10
10.2152
 20
7.08916
 30
0.000000
  70
    32
  0
VERTEX
  8
0
  5
634
 10
10.2028
 20
7.12674
 30
0.000000
  70
    32
  0
VERTEX
  8
0
  5
635
 10
10.1905
 20
7.16434
 30
0.000000
  70
    32
  0
VERTEX
  8
0
  5
636
 10
10.1782
 20
7.20197
 30
0.000000
  70
    32
  0
VERTEX
  8
0
  5
637
 10
10.1660
 20
7.23963
 30
0.000000
  70
    32
  0
VERTEX
  8
0
  5
638
 10
10.1540
 20
7.27732
 30
0.000000
  70
    32
  0
VERTEX
  8
0
  5
639
 10
10.1420
 20
7.31503
 30
0.000000
  70
    32
  0
VERTEX
  8
0
  5
63A
 10
10.1300
 20
7.35276
 30
0.000000
  70
    32
  0
VERTEX
  8
0
  5
63B
 10
10.1182
 20
7.39052
 30
0.000000
  70
    32
  0
VERTEX
  8
0
  5
63C
 10
10.1064
 20
7.42830
 30
0.000000
  70
    32
  0
VERTEX
  8
0
  5
63D
 10
10.0948
 20
7.46611
 30
0.000000
  70
    32
  0
VERTEX
  8
0
  5
63E
 10
10.0832
 20
7.50394
 30
0.000000
  70
    32
  0
VERTEX
  8
0
  5
63F
 10
10.0716
 20
7.54179
 30
0.000000
  70
    32
  0
VERTEX
  8
0
  5
640
 10
10.0602
 20
7.57967
 30
0.000000
  70
    32
  0
VERTEX
  8
0
  5
641
 10
10.0488
 20
7.61756
 30
0.000000
  70
    32
  0
VERTEX
  8
0
  5
642
 10
10.0375
 20
7.65548
 30
0.000000
  70
    32
  0
VERTEX
  8
0
  5
643
 10
10.0263
 20
7.69342
 30
0.000000
  70
    32
  0
VERTEX
  8
0
  5
644
 10
10.0152
 20
7.73137
 30
0.000000
  70
    32
  0
VERTEX
  8
0
  5
645
 10
10.0041
 20
7.76935
 30
0.000000
  70
    32
  0
VERTEX
  8
0
  5
646
 10
9.99310
 20
7.80734
 30
0.000000
  70
    32
  0
VERTEX
  8
0
  5
647
 10
9.98218
 20
7.84536
 30
0.000000
  70
    32
  0
VERTEX
  8
0
  5
648
 10
9.97133
 20
7.88339
 30
0.000000
  70
    32
  0
VERTEX
  8
0
  5
649
 10
9.96055
 20
7.92145
 30
0.000000
  70
    32
  0
VERTEX
  8
0
  5
64A
 10
9.94985
 20
7.95952
 30
0.000000
  70
    32
  0
VERTEX
  8
0
  5
64B
 10
9.93921
 20
7.99761
 30
0.000000
  70
    32
  0
VERTEX
  8
0
  5
64C
 10
9.92865
 20
8.03572
 30
0.000000
  70
    32
  0
VERTEX
  8
0
  5
64D
 10
9.91816
 20
8.07384
 30
0.000000
  70
    32
  0
VERTEX
  8
0
  5
64E
 10
9.90774
 20
8.11199
 30
0.000000
  70
    32
  0
VERTEX
  8
0
  5
64F
 10
9.89738
 20
8.15015
 30
0.000000
  70
    32
  0
VERTEX
  8
0
  5
650
 10
9.88710
 20
8.18833
 30
0.000000
  70
    32
  0
VERTEX
  8
0
  5
651
 10
9.87689
 20
8.22653
 30
0.000000
  70
    32
  0
VERTEX
  8
0
  5
652
 10
9.86674
 20
8.26474
 30
0.000000
  70
    32
  0
VERTEX
  8
0
  5
653
 10
9.85666
 20
8.30297
 30
0.000000
  70
    32
  0
VERTEX
  8
0
  5
654
 10
9.84665
 20
8.34122
 30
0.000000
  70
    32
  0
VERTEX
  8
0
  5
655
 10
9.83671
 20
8.37949
 30
0.000000
  70
    32
  0
VERTEX
  8
0
  5
656
 10
9.82683
 20
8.41777
 30
0.000000
  70
    32
  0
VERTEX
  8
0
  5
657
 10
9.81702
 20
8.45607
 30
0.000000
  70
    32
  0
VERTEX
  8
0
  5
658
 10
9.80728
 20
8.49439
 30
0.000000
  70
    32
  0
VERTEX
  8
0
  5
659
 10
9.79760
 20
8.53272
 30
0.000000
  70
    32
  0
VERTEX
  8
0
  5
65A
 10
9.78798
 20
8.57106
 30
0.000000
  70
    32
  0
VERTEX
  8
0
  5
65B
 10
9.77843
 20
8.60942
 30
0.000000
  70
    32
  0
VERTEX
  8
0
  5
65C
 10
9.76895
 20
8.64780
 30
0.000000
  70
    32
  0
VERTEX
  8
0
  5
65D
 10
9.75952
 20
8.68620
 30
0.000000
  70
    32
  0
VERTEX
  8
0
  5
65E
 10
9.75016
 20
8.72460
 30
0.000000
  70
    32
  0
VERTEX
  8
0
  5
65F
 10
9.74087
 20
8.76303
 30
0.000000
  70
    32
  0
VERTEX
  8
0
  5
660
 10
9.73163
 20
8.80146
 30
0.000000
  70
    32
  0
VERTEX
  8
0
  5
661
 10
9.72246
 20
8.83992
 30
0.000000
  70
    32
  0
VERTEX
  8
0
  5
662
 10
9.71334
 20
8.87838
 30
0.000000
  70
    32
  0
VERTEX
  8
0
  5
663
 10
9.70429
 20
8.91686
 30
0.000000
  70
    32
  0
VERTEX
  8
0
  5
664
 10
9.69530
 20
8.95536
 30
0.000000
  70
    32
  0
VERTEX
  8
0
  5
665
 10
9.68637
 20
8.99387
 30
0.000000
  70
    32
  0
VERTEX
  8
0
  5
666
 10
9.67750
 20
9.03239
 30
0.000000
  70
    32
  0
VERTEX
  8
0
  5
667
 10
9.66868
 20
9.07092
 30
0.000000
  70
    32
  0
VERTEX
  8
0
  5
668
 10
9.65993
 20
9.10947
 30
0.000000
  70
    32
  0
VERTEX
  8
0
  5
669
 10
9.65123
 20
9.14804
 30
0.000000
  70
    32
  0
VERTEX
  8
0
  5
66A
 10
9.64259
 20
9.18661
 30
0.000000
  70
    32
  0
VERTEX
  8
0
  5
66B
 10
9.63401
 20
9.22520
 30
0.000000
  70
    32
  0
VERTEX
  8
0
  5
66C
 10
9.62549
 20
9.26380
 30
0.000000
  70
    32
  0
VERTEX
  8
0
  5
66D
 10
9.61702
 20
9.30241
 30
0.000000
  70
    32
  0
VERTEX
  8
0
  5
66E
 10
9.60860
 20
9.34103
 30
0.000000
  70
    32
  0
VERTEX
  8
0
  5
66F
 10
9.60025
 20
9.37967
 30
0.000000
  70
    32
  0
VERTEX
  8
0
  5
670
 10
9.59194
 20
9.41832
 30
0.000000
  70
    32
  0
VERTEX
  8
0
  5
671
 10
9.58370
 20
9.45698
 30
0.000000
  70
    32
  0
VERTEX
  8
0
  5
672
 10
9.57550
 20
9.49565
 30
0.000000
  70
    32
  0
VERTEX
  8
0
  5
673
 10
9.56736
 20
9.53433
 30
0.000000
  70
    32
  0
VERTEX
  8
0
  5
674
 10
9.55927
 20
9.57303
 30
0.000000
  70
    32
  0
VERTEX
  8
0
  5
675
 10
9.55124
 20
9.61173
 30
0.000000
  70
    32
  0
VERTEX
  8
0
  5
676
 10
9.54326
 20
9.65045
 30
0.000000
  70
    32
  0
VERTEX
  8
0
  5
677
 10
9.53533
 20
9.68917
 30
0.000000
  70
    32
  0
VERTEX
  8
0
  5
678
 10
9.52745
 20
9.72791
 30
0.000000
  70
    32
  0
VERTEX
  8
0
  5
679
 10
9.51962
 20
9.76665
 30
0.000000
  70
    32
  0
VERTEX
  8
0
  5
67A
 10
9.51184
 20
9.80541
 30
0.000000
  70
    32
  0
VERTEX
  8
0
  5
67B
 10
9.50412
 20
9.84418
 30
0.000000
  70
    32
  0
VERTEX
  8
0
  5
67C
 10
9.49644
 20
9.88295
 30
0.000000
  70
    32
  0
VERTEX
  8
0
  5
67D
 10
9.48882
 20
9.92174
 30
0.000000
  70
    32
  0
VERTEX
  8
0
  5
67E
 10
9.48125
 20
9.96054
 30
0.000000
  70
    32
  0
VERTEX
  8
0
  5
67F
 10
9.47372
 20
9.99935
 30
0.000000
  70
    32
  0
VERTEX
  8
0
  5
680
 10
9.46624
 20
10.0382
 30
0.000000
  70
    32
  0
VERTEX
  8
0
  5
681
 10
9.45882
 20
10.0770
 30
0.000000
  70
    32
  0
VERTEX
  8
0
  5
682
 10
9.45144
 20
10.1158
 30
0.000000
  70
    32
  0
VERTEX
  8
0
  5
683
 10
9.44411
 20
10.1547
 30
0.000000
  70
    32
  0
VERTEX
  8
0
  5
684
 10
9.43683
 20
10.1935
 30
0.000000
  70
    32
  0
VERTEX
  8
0
  5
685
 10
9.42960
 20
10.2324
 30
0.000000
  70
    32
  0
VERTEX
  8
0
  5
686
 10
9.42241
 20
10.2713
 30
0.000000
  70
    32
  0
VERTEX
  8
0
  5
687
 10
9.41527
 20
10.3101
 30
0.000000
  70
    32
  0
VERTEX
  8
0
  5
688
 10
9.40818
 20
10.3490
 30
0.000000
  70
    32
  0
VERTEX
  8
0
  5
689
 10
9.40114
 20
10.3879
 30
0.000000
  70
    32
  0
VERTEX
  8
0
  5
68A
 10
9.39414
 20
10.4268
 30
0.000000
  70
    32
  0
VERTEX
  8
0
  5
68B
 10
9.38719
 20
10.4657
 30
0.000000
  70
    32
  0
VERTEX
  8
0
  5
68C
 10
9.38028
 20
10.5047
 30
0.000000
  70
    32
  0
VERTEX
  8
0
  5
68D
 10
9.37342
 20
10.5436
 30
0.000000
  70
    32
  0
VERTEX
  8
0
  5
68E
 10
9.36661
 20
10.5825
 30
0.000000
  70
    32
  0
VERTEX
  8
0
  5
68F
 10
9.35984
 20
10.6215
 30
0.000000
  70
    32
  0
VERTEX
  8
0
  5
690
 10
9.35311
 20
10.6604
 30
0.000000
  70
    32
  0
VERTEX
  8
0
  5
691
 10
9.34643
 20
10.6994
 30
0.000000
  70
    32
  0
VERTEX
  8
0
  5
692
 10
9.33979
 20
10.7384
 30
0.000000
  70
    32
  0
VERTEX
  8
0
  5
693
 10
9.33320
 20
10.7773
 30
0.000000
  70
    32
  0
VERTEX
  8
0
  5
694
 10
9.32665
 20
10.8163
 30
0.000000
  70
    32
  0
VERTEX
  8
0
  5
695
 10
9.32014
 20
10.8553
 30
0.000000
  70
    32
  0
VERTEX
  8
0
  5
696
 10
9.31368
 20
10.8943
 30
0.000000
  70
    32
  0
VERTEX
  8
0
  5
697
 10
9.30726
 20
10.9333
 30
0.000000
  70
    32
  0
VERTEX
  8
0
  5
698
 10
9.30088
 20
10.9723
 30
0.000000
  70
    32
  0
VERTEX
  8
0
  5
699
 10
9.29455
 20
11.0114
 30
0.000000
  70
    32
  0
VERTEX
  8
0
  5
69A
 10
9.28825
 20
11.0504
 30
0.000000
  70
    32
  0
VERTEX
  8
0
  5
69B
 10
9.28200
 20
11.0894
 30
0.000000
  70
    32
  0
VERTEX
  8
0
  5
69C
 10
9.27579
 20
11.1285
 30
0.000000
  70
    32
  0
VERTEX
  8
0
  5
69D
 10
9.26961
 20
11.1675
 30
0.000000
  70
    32
  0
VERTEX
  8
0
  5
69E
 10
9.26348
 20
11.2066
 30
0.000000
  70
    32
  0
VERTEX
  8
0
  5
69F
 10
9.25739
 20
11.2456
 30
0.000000
  70
    32
  0
VERTEX
  8
0
  5
6A0
 10
9.25134
 20
11.2847
 30
0.000000
  70
    32
  0
VERTEX
  8
0
  5
6A1
 10
9.24533
 20
11.3238
 30
0.000000
  70
    32
  0
VERTEX
  8
0
  5
6A2
 10
9.23936
 20
11.3628
 30
0.000000
  70
    32
  0
VERTEX
  8
0
  5
6A3
 10
9.23343
 20
11.4019
 30
0.000000
  70
    32
  0
VERTEX
  8
0
  5
6A4
 10
9.22754
 20
11.4410
 30
0.000000
  70
    32
  0
VERTEX
  8
0
  5
6A5
 10
9.22168
 20
11.4801
 30
0.000000
  70
    32
  0
VERTEX
  8
0
  5
6A6
 10
9.21587
 20
11.5192
 30
0.000000
  70
    32
  0
VERTEX
  8
0
  5
6A7
 10
9.21009
 20
11.5583
 30
0.000000
  70
    32
  0
VERTEX
  8
0
  5
6A8
 10
9.20435
 20
11.5974
 30
0.000000
  70
    32
  0
VERTEX
  8
0
  5
6A9
 10
9.19865
 20
11.6365
 30
0.000000
  70
    32
  0
VERTEX
  8
0
  5
6AA
 10
9.19298
 20
11.6757
 30
0.000000
  70
    32
  0
VERTEX
  8
0
  5
6AB
 10
9.18735
 20
11.7148
 30
0.000000
  70
    32
  0
VERTEX
  8
0
  5
6AC
 10
9.18176
 20
11.7539
 30
0.000000
  70
    32
  0
VERTEX
  8
0
  5
6AD
 10
9.17621
 20
11.7931
 30
0.000000
  70
    32
  0
VERTEX
  8
0
  5
6AE
 10
9.17069
 20
11.8322
 30
0.000000
  70
    32
  0
VERTEX
  8
0
  5
6AF
 10
9.16521
 20
11.8713
 30
0.000000
  70
    32
  0
VERTEX
  8
0
  5
6B0
 10
9.15977
 20
11.9105
 30
0.000000
  70
    32
  0
VERTEX
  8
0
  5
6B1
 10
9.15436
 20
11.9496
 30
0.000000
  70
    32
  0
VERTEX
  8
0
  5
6B2
 10
9.14899
 20
11.9888
 30
0.000000
  70
    32
  0
VERTEX
  8
0
  5
6B3
 10
9.14365
 20
12.0280
 30
0.000000
  70
    32
  0
VERTEX
  8
0
  5
6B4
 10
9.13836
 20
12.0671
 30
0.000000
  70
    32
  0
VERTEX
  8
0
  5
6B5
 10
9.13309
 20
12.1063
 30
0.000000
  70
    32
  0
VERTEX
  8
0
  5
6B6
 10
9.12786
 20
12.1455
 30
0.000000
  70
    32
  0
VERTEX
  8
0
  5
6B7
 10
9.12267
 20
12.1847
 30
0.000000
  70
    32
  0
VERTEX
  8
0
  5
6B8
 10
9.11751
 20
12.2239
 30
0.000000
  70
    32
  0
VERTEX
  8
0
  5
6B9
 10
9.11238
 20
12.2631
 30
0.000000
  70
    32
  0
VERTEX
  8
0
  5
6BA
 10
9.10729
 20
12.3023
 30
0.000000
  70
    32
  0
VERTEX
  8
0
  5
6BB
 10
9.10224
 20
12.3415
 30
0.000000
  70
    32
  0
VERTEX
  8
0
  5
6BC
 10
9.09722
 20
12.3807
 30
0.000000
  70
    32
  0
VERTEX
  8
0
  5
6BD
 10
9.09223
 20
12.4199
 30
0.000000
  70
    32
  0
VERTEX
  8
0
  5
6BE
 10
9.08727
 20
12.4591
 30
0.000000
  70
    32
  0
VERTEX
  8
0
  5
6BF
 10
9.08235
 20
12.4983
 30
0.000000
  70
    32
  0
VERTEX
  8
0
  5
6C0
 10
9.07746
 20
12.5376
 30
0.000000
  70
    32
  0
VERTEX
  8
0
  5
6C1
 10
9.07261
 20
12.5768
 30
0.000000
  70
    32
  0
VERTEX
  8
0
  5
6C2
 10
9.06779
 20
12.6160
 30
0.000000
  70
    32
  0
VERTEX
  8
0
  5
6C3
 10
9.06300
 20
12.6553
 30
0.000000
  70
    32
  0
VERTEX
  8
0
  5
6C4
 10
9.05824
 20
12.6945
 30
0.000000
  70
    32
  0
VERTEX
  8
0
  5
6C5
 10
9.05352
 20
12.7337
 30
0.000000
  70
    32
  0
VERTEX
  8
0
  5
6C6
 10
9.04883
 20
12.7730
 30
0.000000
  70
    32
  0
VERTEX
  8
0
  5
6C7
 10
9.04417
 20
12.8122
 30
0.000000
  70
    32
  0
VERTEX
  8
0
  5
6C8
 10
9.03954
 20
12.8515
 30
0.000000
  70
    32
  0
VERTEX
  8
0
  5
6C9
 10
9.03494
 20
12.8908
 30
0.000000
  70
    32
  0
VERTEX
  8
0
  5
6CA
 10
9.03038
 20
12.9300
 30
0.000000
  70
    32
  0
VERTEX
  8
0
  5
6CB
 10
9.02584
 20
12.9693
 30
0.000000
  70
    32
  0
VERTEX
  8
0
  5
6CC
 10
9.02134
 20
13.0086
 30
0.000000
  70
    32
  0
VERTEX
  8
0
  5
6CD
 10
9.01687
 20
13.0478
 30
0.000000
  70
    32
  0
VERTEX
  8
0
  5
6CE
 10
9.01243
 20
13.0871
 30
0.000000
  70
    32
  0
VERTEX
  8
0
  5
6CF
 10
9.00802
 20
13.1264
 30
0.000000
  70
    32
  0
VERTEX
  8
0
  5
6D0
 10
9.00363
 20
13.1657
 30
0.000000
  70
    32
  0
VERTEX
  8
0
  5
6D1
 10
8.99928
 20
13.2050
 30
0.000000
  70
    32
  0
VERTEX
  8
0
  5
6D2
 10
8.99496
 20
13.2442
 30
0.000000
  70
    32
  0
VERTEX
  8
0
  5
6D3
 10
8.99067
 20
13.2835
 30
0.000000
  70
    32
  0
VERTEX
  8
0
  5
6D4
 10
8.98641
 20
13.3228
 30
0.000000
  70
    32
  0
VERTEX
  8
0
  5
6D5
 10
8.98218
 20
13.3621
 30
0.000000
  70
    32
  0
VERTEX
  8
0
  5
6D6
 10
8.97797
 20
13.4014
 30
0.000000
  70
    32
  0
VERTEX
  8
0
  5
6D7
 10
8.97380
 20
13.4407
 30
0.000000
  70
    32
  0
VERTEX
  8
0
  5
6D8
 10
8.96965
 20
13.4800
 30
0.000000
  70
    32
  0
VERTEX
  8
0
  5
6D9
 10
8.96554
 20
13.5194
 30
0.000000
  70
    32
  0
VERTEX
  8
0
  5
6DA
 10
8.96145
 20
13.5587
 30
0.000000
  70
    32
  0
VERTEX
  8
0
  5
6DB
 10
8.95739
 20
13.5980
 30
0.000000
  70
    32
  0
VERTEX
  8
0
  5
6DC
 10
8.95336
 20
13.6373
 30
0.000000
  70
    32
  0
VERTEX
  8
0
  5
6DD
 10
8.94935
 20
13.6766
 30
0.000000
  70
    32
  0
VERTEX
  8
0
  5
6DE
 10
8.94538
 20
13.7160
 30
0.000000
  70
    32
  0
VERTEX
  8
0
  5
6DF
 10
8.94143
 20
13.7553
 30
0.000000
  70
    32
  0
VERTEX
  8
0
  5
6E0
 10
8.93751
 20
13.7946
 30
0.000000
  70
    32
  0
VERTEX
  8
0
  5
6E1
 10
8.93362
 20
13.8340
 30
0.000000
  70
    32
  0
VERTEX
  8
0
  5
6E2
 10
8.92976
 20
13.8733
 30
0.000000
  70
    32
  0
VERTEX
  8
0
  5
6E3
 10
8.92592
 20
13.9126
 30
0.000000
  70
    32
  0
VERTEX
  8
0
  5
6E4
 10
8.92211
 20
13.9520
 30
0.000000
  70
    32
  0
VERTEX
  8
0
  5
6E5
 10
8.91833
 20
13.9913
 30
0.000000
  70
    32
  0
VERTEX
  8
0
  5
6E6
 10
8.91458
 20
14.0307
 30
0.000000
  70
    32
  0
VERTEX
  8
0
  5
6E7
 10
8.91085
 20
14.0700
 30
0.000000
  70
    32
  0
VERTEX
  8
0
  5
6E8
 10
8.90715
 20
14.1094
 30
0.000000
  70
    32
  0
VERTEX
  8
0
  5
6E9
 10
8.90348
 20
14.1487
 30
0.000000
  70
    32
  0
VERTEX
  8
0
  5
6EA
 10
8.89983
 20
14.1881
 30
0.000000
  70
    32
  0
VERTEX
  8
0
  5
6EB
 10
8.89621
 20
14.2275
 30
0.000000
  70
    32
  0
VERTEX
  8
0
  5
6EC
 10
8.89261
 20
14.2668
 30
0.000000
  70
    32
  0
VERTEX
  8
0
  5
6ED
 10
8.88904
 20
14.3062
 30
0.000000
  70
    32
  0
VERTEX
  8
0
  5
6EE
 10
8.88550
 20
14.3455
 30
0.000000
  70
    32
  0
VERTEX
  8
0
  5
6EF
 10
8.88198
 20
14.3849
 30
0.000000
  70
    32
  0
VERTEX
  8
0
  5
6F0
 10
8.87849
 20
14.4243
 30
0.000000
  70
    32
  0
VERTEX
  8
0
  5
6F1
 10
8.87503
 20
14.4637
 30
0.000000
  70
    32
  0
VERTEX
  8
0
  5
6F2
 10
8.87159
 20
14.5030
 30
0.000000
  70
    32
  0
VERTEX
  8
0
  5
6F3
 10
8.86817
 20
14.5424
 30
0.000000
  70
    32
  0
VERTEX
  8
0
  5
6F4
 10
8.86478
 20
14.5818
 30
0.000000
  70
    32
  0
VERTEX
  8
0
  5
6F5
 10
8.86142
 20
14.6212
 30
0.000000
  70
    32
  0
VERTEX
  8
0
  5
6F6
 10
8.85808
 20
14.6606
 30
0.000000
  70
    32
  0
VERTEX
  8
0
  5
6F7
 10
8.85476
 20
14.7000
 30
0.000000
  70
    32
  0
VERTEX
  8
0
  5
6F8
 10
8.85147
 20
14.7394
 30
0.000000
  70
    32
  0
VERTEX
  8
0
  5
6F9
 10
8.84821
 20
14.7787
 30
0.000000
  70
    32
  0
VERTEX
  8
0
  5
6FA
 10
8.84496
 20
14.8181
 30
0.000000
  70
    32
  0
VERTEX
  8
0
  5
6FB
 10
8.84175
 20
14.8575
 30
0.000000
  70
    32
  0
VERTEX
  8
0
  5
6FC
 10
8.83855
 20
14.8969
 30
0.000000
  70
    32
  0
VERTEX
  8
0
  5
6FD
 10
8.83538
 20
14.9363
 30
0.000000
  70
    32
  0
VERTEX
  8
0
  5
6FE
 10
8.83224
 20
14.9757
 30
0.000000
  70
    32
  0
VERTEX
  8
0
  5
6FF
 10
8.82912
 20
15.0151
 30
0.000000
  70
    32
  0
VERTEX
  8
0
  5
700
 10
8.82602
 20
15.0545
 30
0.000000
  70
    32
  0
VERTEX
  8
0
  5
701
 10
8.82294
 20
15.0940
 30
0.000000
  70
    32
  0
VERTEX
  8
0
  5
702
 10
8.81989
 20
15.1334
 30
0.000000
  70
    32
  0
VERTEX
  8
0
  5
703
 10
8.81686
 20
15.1728
 30
0.000000
  70
    32
  0
VERTEX
  8
0
  5
704
 10
8.81386
 20
15.2122
 30
0.000000
  70
    32
  0
VERTEX
  8
0
  5
705
 10
8.81087
 20
15.2516
 30
0.000000
  70
    32
  0
VERTEX
  8
0
  5
706
 10
8.80792
 20
15.2910
 30
0.000000
  70
    32
  0
VERTEX
  8
0
  5
707
 10
8.80498
 20
15.3304
 30
0.000000
  70
    32
  0
VERTEX
  8
0
  5
708
 10
8.80207
 20
15.3699
 30
0.000000
  70
    32
  0
VERTEX
  8
0
  5
709
 10
8.79917
 20
15.4093
 30
0.000000
  70
    32
  0
VERTEX
  8
0
  5
70A
 10
8.79631
 20
15.4487
 30
0.000000
  70
    32
  0
VERTEX
  8
0
  5
70B
 10
8.79346
 20
15.4881
 30
0.000000
  70
    32
  0
VERTEX
  8
0
  5
70C
 10
8.79064
 20
15.5275
 30
0.000000
  70
    32
  0
VERTEX
  8
0
  5
70D
 10
8.78784
 20
15.5670
 30
0.000000
  70
    32
  0
VERTEX
  8
0
  5
70E
 10
8.78506
 20
15.6064
 30
0.000000
  70
    32
  0
VERTEX
  8
0
  5
70F
 10
8.78230
 20
15.6458
 30
0.000000
  70
    32
  0
VERTEX
  8
0
  5
710
 10
8.77956
 20
15.6853
 30
0.000000
  70
    32
  0
VERTEX
  8
0
  5
711
 10
8.77685
 20
15.7247
 30
0.000000
  70
    32
  0
VERTEX
  8
0
  5
712
 10
8.77416
 20
15.7641
 30
0.000000
  70
    32
  0
VERTEX
  8
0
  5
713
 10
8.77149
 20
15.8036
 30
0.000000
  70
    32
  0
VERTEX
  8
0
  5
714
 10
8.76884
 20
15.8430
 30
0.000000
  70
    32
  0
VERTEX
  8
0
  5
715
 10
8.76622
 20
15.8824
 30
0.000000
  70
    32
  0
VERTEX
  8
0
  5
716
 10
8.76361
 20
15.9219
 30
0.000000
  70
    32
  0
VERTEX
  8
0
  5
717
 10
8.76103
 20
15.9613
 30
0.000000
  70
    32
  0
VERTEX
  8
0
  5
718
 10
8.75846
 20
16.0008
 30
0.000000
  70
    32
  0
VERTEX
  8
0
  5
719
 10
8.75592
 20
16.0402
 30
0.000000
  70
    32
  0
VERTEX
  8
0
  5
71A
 10
8.75340
 20
16.0797
 30
0.000000
  70
    32
  0
VERTEX
  8
0
  5
71B
 10
8.75090
 20
16.1191
 30
0.000000
  70
    32
  0
VERTEX
  8
0
  5
71C
 10
8.74842
 20
16.1586
 30
0.000000
  70
    32
  0
VERTEX
  8
0
  5
71D
 10
8.74596
 20
16.1980
 30
0.000000
  70
    32
  0
VERTEX
  8
0
  5
71E
 10
8.74353
 20
16.2375
 30
0.000000
  70
    32
  0
VERTEX
  8
0
  5
71F
 10
8.74111
 20
16.2769
 30
0.000000
  70
    32
  0
VERTEX
  8
0
  5
720
 10
8.73871
 20
16.3164
 30
0.000000
  70
    32
  0
VERTEX
  8
0
  5
721
 10
8.73634
 20
16.3558
 30
0.000000
  70
    32
  0
VERTEX
  8
0
  5
722
 10
8.73398
 20
16.3953
 30
0.000000
  70
    32
  0
VERTEX
  8
0
  5
723
 10
8.73164
 20
16.4347
 30
0.000000
  70
    32
  0
VERTEX
  8
0
  5
724
 10
8.72933
 20
16.4742
 30
0.000000
  70
    32
  0
VERTEX
  8
0
  5
725
 10
8.72703
 20
16.5137
 30
0.000000
  70
    32
  0
VERTEX
  8
0
  5
726
 10
8.72475
 20
16.5531
 30
0.000000
  70
    32
  0
VERTEX
  8
0
  5
727
 10
8.72250
 20
16.5926
 30
0.000000
  70
    32
  0
VERTEX
  8
0
  5
728
 10
8.72026
 20
16.6320
 30
0.000000
  70
    32
  0
SEQEND
  8
0
  5
729
  0
POLYLINE
  8
0
  5
72A
  66
     1
 10
0.000000
 20
0.000000
 30
0.000000
  70
     8
  0
VERTEX
  8
0
  5
72B
 10
17.7500
 20
1.48981
 30
0.000000
  70
    32
  0
VERTEX
  8
0
  5
72C
 10
17.6239
 20
1.52439
 30
0.000000
  70
    32
  0
VERTEX
  8
0
  5
72D
 10
17.5051
 20
1.55688
 30
0.000000
  70
    32
  0
VERTEX
  8
0
  5
72E
 10
17.3933
 20
1.58734
 30
0.000000
  70
    32
  0
VERTEX
  8
0
  5
72F
 10
17.2884
 20
1.61585
 30
0.000000
  70
    32
  0
VERTEX
  8
0
  5
730
 10
17.1900
 20
1.64248
 30
0.000000
  70
    32
  0
VERTEX
  8
0
  5
731
 10
17.0979
 20
1.66730
 30
0.000000
  70
    32
  0
VERTEX
  8
0
  5
732
 10
17.0119
 20
1.69037
 30
0.000000
  70
    32
  0
VERTEX
  8
0
  5
733
 10
16.9317
 20
1.71178
 30
0.000000
  70
    32
  0
VERTEX
  8
0
  5
734
 10
16.8571
 20
1.73160
 30
0.000000
  70
    32
  0
VERTEX
  8
0
  5
735
 10
16.7878
 20
1.74988
 30
0.000000
  70
    32
  0
VERTEX
  8
0
  5
736
 10
16.7236
 20
1.76672
 30
0.000000
  70
    32
  0
VERTEX
  8
0
  5
737
 10
16.6643
 20
1.78218
 30
0.000000
  70
    32
  0
VERTEX
  8
0
  5
738
 10
16.6096
 20
1.79632
 30
0.000000
  70
    32
  0
VERTEX
  8
0
  5
739
 10
16.5592
 20
1.80923
 30
0.000000
  70
    32
  0
VERTEX
  8
0
  5
73A
 10
16.5129
 20
1.82097
 30
0.000000
  70
    32
  0
VERTEX
  8
0
  5
73B
 10
16.4705
 20
1.83162
 30
0.000000
  70
    32
  0
VERTEX
  8
0
  5
73C
 10
16.4318
 20
1.84124
 30
0.000000
  70
    32
  0
VERTEX
  8
0
  5
73D
 10
16.3964
 20
1.84991
 30
0.000000
  70
    32
  0
VERTEX
  8
0
  5
73E
 10
16.3641
 20
1.85771
 30
0.000000
  70
    32
  0
VERTEX
  8
0
  5
73F
 10
16.3348
 20
1.86469
 30
0.000000
  70
    32
  0
VERTEX
  8
0
  5
740
 10
16.3081
 20
1.87094
 30
0.000000
  70
    32
  0
VERTEX
  8
0
  5
741
 10
16.2838
 20
1.87652
 30
0.000000
  70
    32
  0
VERTEX
  8
0
  5
742
 10
16.2616
 20
1.88151
 30
0.000000
  70
    32
  0
VERTEX
  8
0
  5
743
 10
16.2414
 20
1.88598
 30
0.000000
  70
    32
  0
VERTEX
  8
0
  5
744
 10
16.2228
 20
1.89000
 30
0.000000
  70
    32
  0
VERTEX
  8
0
  5
745
 10
16.2057
 20
1.89364
 30
0.000000
  70
    32
  0
VERTEX
  8
0
  5
746
 10
16.1897
 20
1.89698
 30
0.000000
  70
    32
  0
VERTEX
  8
0
  5
747
 10
16.1747
 20
1.90007
 30
0.000000
  70
    32
  0
VERTEX
  8
0
  5
748
 10
16.1604
 20
1.90301
 30
0.000000
  70
    32
  0
VERTEX
  8
0
  5
749
 10
16.1465
 20
1.90585
 30
0.000000
  70
    32
  0
VERTEX
  8
0
  5
74A
 10
16.1328
 20
1.90868
 30
0.000000
  70
    32
  0
VERTEX
  8
0
  5
74B
 10
16.1192
 20
1.91153
 30
0.000000
  70
    32
  0
VERTEX
  8
0
  5
74C
 10
16.1055
 20
1.91442
 30
0.000000
  70
    32
  0
VERTEX
  8
0
  5
74D
 10
16.0919
 20
1.91735
 30
0.000000
  70
    32
  0
VERTEX
  8
0
  5
74E
 10
16.0782
 20
1.92032
 30
0.000000
  70
    32
  0
VERTEX
  8
0
  5
74F
 10
16.0646
 20
1.92333
 30
0.000000
  70
    32
  0
VERTEX
  8
0
  5
750
 10
16.0510
 20
1.92637
 30
0.000000
  70
    32
  0
VERTEX
  8
0
  5
751
 10
16.0373
 20
1.92945
 30
0.000000
  70
    32
  0
VERTEX
  8
0
  5
752
 10
16.0237
 20
1.93257
 30
0.000000
  70
    32
  0
VERTEX
  8
0
  5
753
 10
16.0101
 20
1.93573
 30
0.000000
  70
    32
  0
VERTEX
  8
0
  5
754
 10
15.9965
 20
1.93892
 30
0.000000
  70
    32
  0
VERTEX
  8
0
  5
755
 10
15.9828
 20
1.94215
 30
0.000000
  70
    32
  0
VERTEX
  8
0
  5
756
 10
15.9692
 20
1.94542
 30
0.000000
  70
    32
  0
VERTEX
  8
0
  5
757
 10
15.9556
 20
1.94873
 30
0.000000
  70
    32
  0
VERTEX
  8
0
  5
758
 10
15.9420
 20
1.95207
 30
0.000000
  70
    32
  0
VERTEX
  8
0
  5
759
 10
15.9284
 20
1.95545
 30
0.000000
  70
    32
  0
VERTEX
  8
0
  5
75A
 10
15.9148
 20
1.95887
 30
0.000000
  70
    32
  0
VERTEX
  8
0
  5
75B
 10
15.9012
 20
1.96232
 30
0.000000
  70
    32
  0
VERTEX
  8
0
  5
75C
 10
15.8877
 20
1.96582
 30
0.000000
  70
    32
  0
VERTEX
  8
0
  5
75D
 10
15.8741
 20
1.96934
 30
0.000000
  70
    32
  0
VERTEX
  8
0
  5
75E
 10
15.8605
 20
1.97291
 30
0.000000
  70
    32
  0
VERTEX
  8
0
  5
75F
 10
15.8469
 20
1.97651
 30
0.000000
  70
    32
  0
VERTEX
  8
0
  5
760
 10
15.8334
 20
1.98015
 30
0.000000
  70
    32
  0
VERTEX
  8
0
  5
761
 10
15.8198
 20
1.98383
 30
0.000000
  70
    32
  0
VERTEX
  8
0
  5
762
 10
15.8063
 20
1.98754
 30
0.000000
  70
    32
  0
VERTEX
  8
0
  5
763
 10
15.7927
 20
1.99130
 30
0.000000
  70
    32
  0
VERTEX
  8
0
  5
764
 10
15.7792
 20
1.99508
 30
0.000000
  70
    32
  0
VERTEX
  8
0
  5
765
 10
15.7656
 20
1.99891
 30
0.000000
  70
    32
  0
VERTEX
  8
0
  5
766
 10
15.7521
 20
2.00277
 30
0.000000
  70
    32
  0
VERTEX
  8
0
  5
767
 10
15.7386
 20
2.00666
 30
0.000000
  70
    32
  0
VERTEX
  8
0
  5
768
 10
15.7251
 20
2.01060
 30
0.000000
  70
    32
  0
VERTEX
  8
0
  5
769
 10
15.7116
 20
2.01457
 30
0.000000
  70
    32
  0
VERTEX
  8
0
  5
76A
 10
15.6981
 20
2.01857
 30
0.000000
  70
    32
  0
VERTEX
  8
0
  5
76B
 10
15.6846
 20
2.02262
 30
0.000000
  70
    32
  0
VERTEX
  8
0
  5
76C
 10
15.6711
 20
2.02670
 30
0.000000
  70
    32
  0
VERTEX
  8
0
  5
76D
 10
15.6576
 20
2.03081
 30
0.000000
  70
    32
  0
VERTEX
  8
0
  5
76E
 10
15.6442
 20
2.03496
 30
0.000000
  70
    32
  0
VERTEX
  8
0
  5
76F
 10
15.6307
 20
2.03915
 30
0.000000
  70
    32
  0
VERTEX
  8
0
  5
770
 10
15.6172
 20
2.04337
 30
0.000000
  70
    32
  0
VERTEX
  8
0
  5
771
 10
15.6038
 20
2.04763
 30
0.000000
  70
    32
  0
VERTEX
  8
0
  5
772
 10
15.5904
 20
2.05193
 30
0.000000
  70
    32
  0
VERTEX
  8
0
  5
773
 10
15.5769
 20
2.05626
 30
0.000000
  70
    32
  0
VERTEX
  8
0
  5
774
 10
15.5635
 20
2.06063
 30
0.000000
  70
    32
  0
VERTEX
  8
0
  5
775
 10
15.5501
 20
2.06503
 30
0.000000
  70
    32
  0
VERTEX
  8
0
  5
776
 10
15.5367
 20
2.06947
 30
0.000000
  70
    32
  0
VERTEX
  8
0
  5
777
 10
15.5233
 20
2.07394
 30
0.000000
  70
    32
  0
VERTEX
  8
0
  5
778
 10
15.5099
 20
2.07845
 30
0.000000
  70
    32
  0
VERTEX
  8
0
  5
779
 10
15.4965
 20
2.08300
 30
0.000000
  70
    32
  0
VERTEX
  8
0
  5
77A
 10
15.4832
 20
2.08758
 30
0.000000
  70
    32
  0
VERTEX
  8
0
  5
77B
 10
15.4698
 20
2.09220
 30
0.000000
  70
    32
  0
VERTEX
  8
0
  5
77C
 10
15.4565
 20
2.09685
 30
0.000000
  70
    32
  0
VERTEX
  8
0
  5
77D
 10
15.4431
 20
2.10153
 30
0.000000
  70
    32
  0
VERTEX
  8
0
  5
77E
 10
15.4298
 20
2.10626
 30
0.000000
  70
    32
  0
VERTEX
  8
0
  5
77F
 10
15.4165
 20
2.11101
 30
0.000000
  70
    32
  0
VERTEX
  8
0
  5
780
 10
15.4032
 20
2.11581
 30
0.000000
  70
    32
  0
VERTEX
  8
0
  5
781
 10
15.3899
 20
2.12063
 30
0.000000
  70
    32
  0
VERTEX
  8
0
  5
782
 10
15.3766
 20
2.12549
 30
0.000000
  70
    32
  0
VERTEX
  8
0
  5
783
 10
15.3633
 20
2.13039
 30
0.000000
  70
    32
  0
VERTEX
  8
0
  5
784
 10
15.3500
 20
2.13532
 30
0.000000
  70
    32
  0
VERTEX
  8
0
  5
785
 10
15.3368
 20
2.14029
 30
0.000000
  70
    32
  0
VERTEX
  8
0
  5
786
 10
15.3235
 20
2.14529
 30
0.000000
  70
    32
  0
VERTEX
  8
0
  5
787
 10
15.3103
 20
2.15032
 30
0.000000
  70
    32
  0
VERTEX
  8
0
  5
788
 10
15.2971
 20
2.15539
 30
0.000000
  70
    32
  0
VERTEX
  8
0
  5
789
 10
15.2838
 20
2.16050
 30
0.000000
  70
    32
  0
VERTEX
  8
0
  5
78A
 10
15.2706
 20
2.16564
 30
0.000000
  70
    32
  0
VERTEX
  8
0
  5
78B
 10
15.2574
 20
2.17081
 30
0.000000
  70
    32
  0
VERTEX
  8
0
  5
78C
 10
15.2443
 20
2.17602
 30
0.000000
  70
    32
  0
VERTEX
  8
0
  5
78D
 10
15.2311
 20
2.18126
 30
0.000000
  70
    32
  0
VERTEX
  8
0
  5
78E
 10
15.2179
 20
2.18653
 30
0.000000
  70
    32
  0
VERTEX
  8
0
  5
78F
 10
15.2048
 20
2.19184
 30
0.000000
  70
    32
  0
VERTEX
  8
0
  5
790
 10
15.1917
 20
2.19719
 30
0.000000
  70
    32
  0
VERTEX
  8
0
  5
791
 10
15.1785
 20
2.20257
 30
0.000000
  70
    32
  0
VERTEX
  8
0
  5
792
 10
15.1654
 20
2.20798
 30
0.000000
  70
    32
  0
VERTEX
  8
0
  5
793
 10
15.1523
 20
2.21342
 30
0.000000
  70
    32
  0
VERTEX
  8
0
  5
794
 10
15.1393
 20
2.21890
 30
0.000000
  70
    32
  0
VERTEX
  8
0
  5
795
 10
15.1262
 20
2.22441
 30
0.000000
  70
    32
  0
VERTEX
  8
0
  5
796
 10
15.1131
 20
2.22996
 30
0.000000
  70
    32
  0
VERTEX
  8
0
  5
797
 10
15.1001
 20
2.23554
 30
0.000000
  70
    32
  0
VERTEX
  8
0
  5
798
 10
15.0871
 20
2.24115
 30
0.000000
  70
    32
  0
VERTEX
  8
0
  5
799
 10
15.0741
 20
2.24680
 30
0.000000
  70
    32
  0
VERTEX
  8
0
  5
79A
 10
15.0611
 20
2.25248
 30
0.000000
  70
    32
  0
VERTEX
  8
0
  5
79B
 10
15.0481
 20
2.25820
 30
0.000000
  70
    32
  0
VERTEX
  8
0
  5
79C
 10
15.0351
 20
2.26394
 30
0.000000
  70
    32
  0
VERTEX
  8
0
  5
79D
 10
15.0221
 20
2.26972
 30
0.000000
  70
    32
  0
VERTEX
  8
0
  5
79E
 10
15.0092
 20
2.27553
 30
0.000000
  70
    32
  0
VERTEX
  8
0
  5
79F
 10
14.9963
 20
2.28138
 30
0.000000
  70
    32
  0
VERTEX
  8
0
  5
7A0
 10
14.9833
 20
2.28726
 30
0.000000
  70
    32
  0
VERTEX
  8
0
  5
7A1
 10
14.9704
 20
2.29317
 30
0.000000
  70
    32
  0
VERTEX
  8
0
  5
7A2
 10
14.9576
 20
2.29912
 30
0.000000
  70
    32
  0
VERTEX
  8
0
  5
7A3
 10
14.9447
 20
2.30509
 30
0.000000
  70
    32
  0
VERTEX
  8
0
  5
7A4
 10
14.9318
 20
2.31110
 30
0.000000
  70
    32
  0
VERTEX
  8
0
  5
7A5
 10
14.9190
 20
2.31715
 30
0.000000
  70
    32
  0
VERTEX
  8
0
  5
7A6
 10
14.9062
 20
2.32322
 30
0.000000
  70
    32
  0
VERTEX
  8
0
  5
7A7
 10
14.8933
 20
2.32933
 30
0.000000
  70
    32
  0
VERTEX
  8
0
  5
7A8
 10
14.8805
 20
2.33547
 30
0.000000
  70
    32
  0
VERTEX
  8
0
  5
7A9
 10
14.8678
 20
2.34164
 30
0.000000
  70
    32
  0
VERTEX
  8
0
  5
7AA
 10
14.8550
 20
2.34785
 30
0.000000
  70
    32
  0
VERTEX
  8
0
  5
7AB
 10
14.8423
 20
2.35409
 30
0.000000
  70
    32
  0
VERTEX
  8
0
  5
7AC
 10
14.8295
 20
2.36036
 30
0.000000
  70
    32
  0
VERTEX
  8
0
  5
7AD
 10
14.8168
 20
2.36666
 30
0.000000
  70
    32
  0
VERTEX
  8
0
  5
7AE
 10
14.8041
 20
2.37299
 30
0.000000
  70
    32
  0
VERTEX
  8
0
  5
7AF
 10
14.7914
 20
2.37935
 30
0.000000
  70
    32
  0
VERTEX
  8
0
  5
7B0
 10
14.7788
 20
2.38575
 30
0.000000
  70
    32
  0
VERTEX
  8
0
  5
7B1
 10
14.7661
 20
2.39218
 30
0.000000
  70
    32
  0
VERTEX
  8
0
  5
7B2
 10
14.7535
 20
2.39864
 30
0.000000
  70
    32
  0
VERTEX
  8
0
  5
7B3
 10
14.7409
 20
2.40513
 30
0.000000
  70
    32
  0
VERTEX
  8
0
  5
7B4
 10
14.7283
 20
2.41165
 30
0.000000
  70
    32
  0
VERTEX
  8
0
  5
7B5
 10
14.7157
 20
2.41821
 30
0.000000
  70
    32
  0
VERTEX
  8
0
  5
7B6
 10
14.7031
 20
2.42480
 30
0.000000
  70
    32
  0
VERTEX
  8
0
  5
7B7
 10
14.6906
 20
2.43141
 30
0.000000
  70
    32
  0
VERTEX
  8
0
  5
7B8
 10
14.6780
 20
2.43806
 30
0.000000
  70
    32
  0
VERTEX
  8
0
  5
7B9
 10
14.6655
 20
2.44474
 30
0.000000
  70
    32
  0
VERTEX
  8
0
  5
7BA
 10
14.6530
 20
2.45145
 30
0.000000
  70
    32
  0
VERTEX
  8
0
  5
7BB
 10
14.6406
 20
2.45819
 30
0.000000
  70
    32
  0
VERTEX
  8
0
  5
7BC
 10
14.6281
 20
2.46496
 30
0.000000
  70
    32
  0
VERTEX
  8
0
  5
7BD
 10
14.6157
 20
2.47177
 30
0.000000
  70
    32
  0
VERTEX
  8
0
  5
7BE
 10
14.6032
 20
2.47860
 30
0.000000
  70
    32
  0
VERTEX
  8
0
  5
7BF
 10
14.5908
 20
2.48546
 30
0.000000
  70
    32
  0
VERTEX
  8
0
  5
7C0
 10
14.5785
 20
2.49236
 30
0.000000
  70
    32
  0
VERTEX
  8
0
  5
7C1
 10
14.5661
 20
2.49928
 30
0.000000
  70
    32
  0
VERTEX
  8
0
  5
7C2
 10
14.5538
 20
2.50624
 30
0.000000
  70
    32
  0
VERTEX
  8
0
  5
7C3
 10
14.5414
 20
2.51323
 30
0.000000
  70
    32
  0
VERTEX
  8
0
  5
7C4
 10
14.5291
 20
2.52024
 30
0.000000
  70
    32
  0
VERTEX
  8
0
  5
7C5
 10
14.5168
 20
2.52729
 30
0.000000
  70
    32
  0
VERTEX
  8
0
  5
7C6
 10
14.5046
 20
2.53436
 30
0.000000
  70
    32
  0
VERTEX
  8
0
  5
7C7
 10
14.4923
 20
2.54147
 30
0.000000
  70
    32
  0
VERTEX
  8
0
  5
7C8
 10
14.4801
 20
2.54861
 30
0.000000
  70
    32
  0
VERTEX
  8
0
  5
7C9
 10
14.4679
 20
2.55577
 30
0.000000
  70
    32
  0
VERTEX
  8
0
  5
7CA
 10
14.4557
 20
2.56297
 30
0.000000
  70
    32
  0
VERTEX
  8
0
  5
7CB
 10
14.4435
 20
2.57020
 30
0.000000
  70
    32
  0
VERTEX
  8
0
  5
7CC
 10
14.4314
 20
2.57745
 30
0.000000
  70
    32
  0
VERTEX
  8
0
  5
7CD
 10
14.4193
 20
2.58474
 30
0.000000
  70
    32
  0
VERTEX
  8
0
  5
7CE
 10
14.4072
 20
2.59205
 30
0.000000
  70
    32
  0
VERTEX
  8
0
  5
7CF
 10
14.3951
 20
2.59939
 30
0.000000
  70
    32
  0
VERTEX
  8
0
  5
7D0
 10
14.3830
 20
2.60677
 30
0.000000
  70
    32
  0
VERTEX
  8
0
  5
7D1
 10
14.3710
 20
2.61417
 30
0.000000
  70
    32
  0
VERTEX
  8
0
  5
7D2
 10
14.3590
 20
2.62160
 30
0.000000
  70
    32
  0
VERTEX
  8
0
  5
7D3
 10
14.3470
 20
2.62907
 30
0.000000
  70
    32
  0
VERTEX
  8
0
  5
7D4
 10
14.3350
 20
2.63656
 30
0.000000
  70
    32
  0
VERTEX
  8
0
  5
7D5
 10
14.3230
 20
2.64408
 30
0.000000
  70
    32
  0
VERTEX
  8
0
  5
7D6
 10
14.3111
 20
2.65164
 30
0.000000
  70
    32
  0
VERTEX
  8
0
  5
7D7
 10
14.2991
 20
2.65922
 30
0.000000
  70
    32
  0
VERTEX
  8
0
  5
7D8
 10
14.2872
 20
2.66683
 30
0.000000
  70
    32
  0
VERTEX
  8
0
  5
7D9
 10
14.2754
 20
2.67447
 30
0.000000
  70
    32
  0
VERTEX
  8
0
  5
7DA
 10
14.2635
 20
2.68215
 30
0.000000
  70
    32
  0
VERTEX
  8
0
  5
7DB
 10
14.2517
 20
2.68985
 30
0.000000
  70
    32
  0
VERTEX
  8
0
  5
7DC
 10
14.2398
 20
2.69758
 30
0.000000
  70
    32
  0
VERTEX
  8
0
  5
7DD
 10
14.2280
 20
2.70534
 30
0.000000
  70
    32
  0
VERTEX
  8
0
  5
7DE
 10
14.2162
 20
2.71313
 30
0.000000
  70
    32
  0
VERTEX
  8
0
  5
7DF
 10
14.2045
 20
2.72095
 30
0.000000
  70
    32
  0
VERTEX
  8
0
  5
7E0
 10
14.1927
 20
2.72881
 30
0.000000
  70
    32
  0
VERTEX
  8
0
  5
7E1
 10
14.1810
 20
2.73669
 30
0.000000
  70
    32
  0
VERTEX
  8
0
  5
7E2
 10
14.1693
 20
2.74460
 30
0.000000
  70
    32
  0
VERTEX
  8
0
  5
7E3
 10
14.1576
 20
2.75254
 30
0.000000
  70
    32
  0
VERTEX
  8
0
  5
7E4
 10
14.1459
 20
2.76051
 30
0.000000
  70
    32
  0
VERTEX
  8
0
  5
7E5
 10
14.1343
 20
2.76851
 30
0.000000
  70
    32
  0
VERTEX
  8
0
  5
7E6
 10
14.1226
 20
2.77654
 30
0.000000
  70
    32
  0
VERTEX
  8
0
  5
7E7
 10
14.1110
 20
2.78460
 30
0.000000
  70
    32
  0
VERTEX
  8
0
  5
7E8
 10
14.0994
 20
2.79269
 30
0.000000
  70
    32
  0
VERTEX
  8
0
  5
7E9
 10
14.0879
 20
2.80081
 30
0.000000
  70
    32
  0
VERTEX
  8
0
  5
7EA
 10
14.0763
 20
2.80896
 30
0.000000
  70
    32
  0
VERTEX
  8
0
  5
7EB
 10
14.0648
 20
2.81714
 30
0.000000
  70
    32
  0
VERTEX
  8
0
  5
7EC
 10
14.0532
 20
2.82535
 30
0.000000
  70
    32
  0
VERTEX
  8
0
  5
7ED
 10
14.0417
 20
2.83359
 30
0.000000
  70
    32
  0
VERTEX
  8
0
  5
7EE
 10
14.0303
 20
2.84186
 30
0.000000
  70
    32
  0
VERTEX
  8
0
  5
7EF
 10
14.0188
 20
2.85016
 30
0.000000
  70
    32
  0
VERTEX
  8
0
  5
7F0
 10
14.0074
 20
2.85849
 30
0.000000
  70
    32
  0
VERTEX
  8
0
  5
7F1
 10
13.9959
 20
2.86684
 30
0.000000
  70
    32
  0
VERTEX
  8
0
  5
7F2
 10
13.9845
 20
2.87523
 30
0.000000
  70
    32
  0
VERTEX
  8
0
  5
7F3
 10
13.9731
 20
2.88365
 30
0.000000
  70
    32
  0
VERTEX
  8
0
  5
7F4
 10
13.9617
 20
2.89210
 30
0.000000
  70
    32
  0
VERTEX
  8
0
  5
7F5
 10
13.9504
 20
2.90057
 30
0.000000
  70
    32
  0
VERTEX
  8
0
  5
7F6
 10
13.9390
 20
2.90908
 30
0.000000
  70
    32
  0
VERTEX
  8
0
  5
7F7
 10
13.9277
 20
2.91762
 30
0.000000
  70
    32
  0
VERTEX
  8
0
  5
7F8
 10
13.9164
 20
2.92618
 30
0.000000
  70
    32
  0
VERTEX
  8
0
  5
7F9
 10
13.9051
 20
2.93478
 30
0.000000
  70
    32
  0
VERTEX
  8
0
  5
7FA
 10
13.8939
 20
2.94340
 30
0.000000
  70
    32
  0
VERTEX
  8
0
  5
7FB
 10
13.8826
 20
2.95206
 30
0.000000
  70
    32
  0
VERTEX
  8
0
  5
7FC
 10
13.8714
 20
2.96074
 30
0.000000
  70
    32
  0
VERTEX
  8
0
  5
7FD
 10
13.8602
 20
2.96945
 30
0.000000
  70
    32
  0
VERTEX
  8
0
  5
7FE
 10
13.8490
 20
2.97819
 30
0.000000
  70
    32
  0
VERTEX
  8
0
  5
7FF
 10
13.8378
 20
2.98696
 30
0.000000
  70
    32
  0
VERTEX
  8
0
  5
800
 10
13.8267
 20
2.99576
 30
0.000000
  70
    32
  0
VERTEX
  8
0
  5
801
 10
13.8155
 20
3.00458
 30
0.000000
  70
    32
  0
VERTEX
  8
0
  5
802
 10
13.8044
 20
3.01344
 30
0.000000
  70
    32
  0
VERTEX
  8
0
  5
803
 10
13.7933
 20
3.02232
 30
0.000000
  70
    32
  0
VERTEX
  8
0
  5
804
 10
13.7822
 20
3.03123
 30
0.000000
  70
    32
  0
VERTEX
  8
0
  5
805
 10
13.7712
 20
3.04017
 30
0.000000
  70
    32
  0
VERTEX
  8
0
  5
806
 10
13.7601
 20
3.04914
 30
0.000000
  70
    32
  0
VERTEX
  8
0
  5
807
 10
13.7491
 20
3.05813
 30
0.000000
  70
    32
  0
VERTEX
  8
0
  5
808
 10
13.7381
 20
3.06715
 30
0.000000
  70
    32
  0
VERTEX
  8
0
  5
809
 10
13.7271
 20
3.07621
 30
0.000000
  70
    32
  0
VERTEX
  8
0
  5
80A
 10
13.7161
 20
3.08529
 30
0.000000
  70
    32
  0
VERTEX
  8
0
  5
80B
 10
13.7052
 20
3.09439
 30
0.000000
  70
    32
  0
VERTEX
  8
0
  5
80C
 10
13.6943
 20
3.10353
 30
0.000000
  70
    32
  0
VERTEX
  8
0
  5
80D
 10
13.6833
 20
3.11269
 30
0.000000
  70
    32
  0
VERTEX
  8
0
  5
80E
 10
13.6725
 20
3.12188
 30
0.000000
  70
    32
  0
VERTEX
  8
0
  5
80F
 10
13.6616
 20
3.13110
 30
0.000000
  70
    32
  0
VERTEX
  8
0
  5
810
 10
13.6507
 20
3.14035
 30
0.000000
  70
    32
  0
VERTEX
  8
0
  5
811
 10
13.6399
 20
3.14962
 30
0.000000
  70
    32
  0
VERTEX
  8
0
  5
812
 10
13.6291
 20
3.15893
 30
0.000000
  70
    32
  0
VERTEX
  8
0
  5
813
 10
13.6183
 20
3.16826
 30
0.000000
  70
    32
  0
VERTEX
  8
0
  5
814
 10
13.6075
 20
3.17761
 30
0.000000
  70
    32
  0
VERTEX
  8
0
  5
815
 10
13.5967
 20
3.18700
 30
0.000000
  70
    32
  0
VERTEX
  8
0
  5
816
 10
13.5860
 20
3.19641
 30
0.000000
  70
    32
  0
VERTEX
  8
0
  5
817
 10
13.5753
 20
3.20584
 30
0.000000
  70
    32
  0
VERTEX
  8
0
  5
818
 10
13.5646
 20
3.21531
 30
0.000000
  70
    32
  0
VERTEX
  8
0
  5
819
 10
13.5539
 20
3.22480
 30
0.000000
  70
    32
  0
VERTEX
  8
0
  5
81A
 10
13.5432
 20
3.23432
 30
0.000000
  70
    32
  0
VERTEX
  8
0
  5
81B
 10
13.5326
 20
3.24387
 30
0.000000
  70
    32
  0
VERTEX
  8
0
  5
81C
 10
13.5219
 20
3.25344
 30
0.000000
  70
    32
  0
VERTEX
  8
0
  5
81D
 10
13.5113
 20
3.26304
 30
0.000000
  70
    32
  0
VERTEX
  8
0
  5
81E
 10
13.5007
 20
3.27267
 30
0.000000
  70
    32
  0
VERTEX
  8
0
  5
81F
 10
13.4902
 20
3.28232
 30
0.000000
  70
    32
  0
VERTEX
  8
0
  5
820
 10
13.4796
 20
3.29200
 30
0.000000
  70
    32
  0
VERTEX
  8
0
  5
821
 10
13.4691
 20
3.30171
 30
0.000000
  70
    32
  0
VERTEX
  8
0
  5
822
 10
13.4586
 20
3.31144
 30
0.000000
  70
    32
  0
VERTEX
  8
0
  5
823
 10
13.4481
 20
3.32120
 30
0.000000
  70
    32
  0
VERTEX
  8
0
  5
824
 10
13.4376
 20
3.33099
 30
0.000000
  70
    32
  0
VERTEX
  8
0
  5
825
 10
13.4271
 20
3.34080
 30
0.000000
  70
    32
  0
VERTEX
  8
0
  5
826
 10
13.4167
 20
3.35063
 30
0.000000
  70
    32
  0
VERTEX
  8
0
  5
827
 10
13.4063
 20
3.36050
 30
0.000000
  70
    32
  0
VERTEX
  8
0
  5
828
 10
13.3959
 20
3.37038
 30
0.000000
  70
    32
  0
VERTEX
  8
0
  5
829
 10
13.3855
 20
3.38030
 30
0.000000
  70
    32
  0
VERTEX
  8
0
  5
82A
 10
13.3752
 20
3.39024
 30
0.000000
  70
    32
  0
VERTEX
  8
0
  5
82B
 10
13.3648
 20
3.40020
 30
0.000000
  70
    32
  0
VERTEX
  8
0
  5
82C
 10
13.3545
 20
3.41019
 30
0.000000
  70
    32
  0
VERTEX
  8
0
  5
82D
 10
13.3442
 20
3.42021
 30
0.000000
  70
    32
  0
VERTEX
  8
0
  5
82E
 10
13.3339
 20
3.43025
 30
0.000000
  70
    32
  0
VERTEX
  8
0
  5
82F
 10
13.3237
 20
3.44032
 30
0.000000
  70
    32
  0
VERTEX
  8
0
  5
830
 10
13.3134
 20
3.45041
 30
0.000000
  70
    32
  0
VERTEX
  8
0
  5
831
 10
13.3032
 20
3.46053
 30
0.000000
  70
    32
  0
VERTEX
  8
0
  5
832
 10
13.2930
 20
3.47067
 30
0.000000
  70
    32
  0
VERTEX
  8
0
  5
833
 10
13.2828
 20
3.48083
 30
0.000000
  70
    32
  0
VERTEX
  8
0
  5
834
 10
13.2727
 20
3.49103
 30
0.000000
  70
    32
  0
VERTEX
  8
0
  5
835
 10
13.2625
 20
3.50124
 30
0.000000
  70
    32
  0
VERTEX
  8
0
  5
836
 10
13.2524
 20
3.51149
 30
0.000000
  70
    32
  0
VERTEX
  8
0
  5
837
 10
13.2423
 20
3.52175
 30
0.000000
  70
    32
  0
VERTEX
  8
0
  5
838
 10
13.2322
 20
3.53204
 30
0.000000
  70
    32
  0
VERTEX
  8
0
  5
839
 10
13.2221
 20
3.54236
 30
0.000000
  70
    32
  0
VERTEX
  8
0
  5
83A
 10
13.2121
 20
3.55270
 30
0.000000
  70
    32
  0
VERTEX
  8
0
  5
83B
 10
13.2021
 20
3.56306
 30
0.000000
  70
    32
  0
VERTEX
  8
0
  5
83C
 10
13.1921
 20
3.57345
 30
0.000000
  70
    32
  0
VERTEX
  8
0
  5
83D
 10
13.1821
 20
3.58386
 30
0.000000
  70
    32
  0
VERTEX
  8
0
  5
83E
 10
13.1721
 20
3.59430
 30
0.000000
  70
    32
  0
VERTEX
  8
0
  5
83F
 10
13.1622
 20
3.60476
 30
0.000000
  70
    32
  0
VERTEX
  8
0
  5
840
 10
13.1522
 20
3.61525
 30
0.000000
  70
    32
  0
VERTEX
  8
0
  5
841
 10
13.1423
 20
3.62576
 30
0.000000
  70
    32
  0
VERTEX
  8
0
  5
842
 10
13.1325
 20
3.63629
 30
0.000000
  70
    32
  0
VERTEX
  8
0
  5
843
 10
13.1226
 20
3.64685
 30
0.000000
  70
    32
  0
VERTEX
  8
0
  5
844
 10
13.1127
 20
3.65743
 30
0.000000
  70
    32
  0
VERTEX
  8
0
  5
845
 10
13.1029
 20
3.66803
 30
0.000000
  70
    32
  0
VERTEX
  8
0
  5
846
 10
13.0931
 20
3.67866
 30
0.000000
  70
    32
  0
VERTEX
  8
0
  5
847
 10
13.0833
 20
3.68931
 30
0.000000
  70
    32
  0
VERTEX
  8
0
  5
848
 10
13.0736
 20
3.69999
 30
0.000000
  70
    32
  0
VERTEX
  8
0
  5
849
 10
13.0638
 20
3.71069
 30
0.000000
  70
    32
  0
VERTEX
  8
0
  5
84A
 10
13.0541
 20
3.72141
 30
0.000000
  70
    32
  0
VERTEX
  8
0
  5
84B
 10
13.0444
 20
3.73215
 30
0.000000
  70
    32
  0
VERTEX
  8
0
  5
84C
 10
13.0347
 20
3.74292
 30
0.000000
  70
    32
  0
VERTEX
  8
0
  5
84D
 10
13.0250
 20
3.75371
 30
0.000000
  70
    32
  0
VERTEX
  8
0
  5
84E
 10
13.0154
 20
3.76453
 30
0.000000
  70
    32
  0
VERTEX
  8
0
  5
84F
 10
13.0058
 20
3.77537
 30
0.000000
  70
    32
  0
VERTEX
  8
0
  5
850
 10
12.9962
 20
3.78623
 30
0.000000
  70
    32
  0
VERTEX
  8
0
  5
851
 10
12.9866
 20
3.79711
 30
0.000000
  70
    32
  0
VERTEX
  8
0
  5
852
 10
12.9770
 20
3.80802
 30
0.000000
  70
    32
  0
VERTEX
  8
0
  5
853
 10
12.9675
 20
3.81895
 30
0.000000
  70
    32
  0
VERTEX
  8
0
  5
854
 10
12.9579
 20
3.82990
 30
0.000000
  70
    32
  0
VERTEX
  8
0
  5
855
 10
12.9484
 20
3.84087
 30
0.000000
  70
    32
  0
VERTEX
  8
0
  5
856
 10
12.9389
 20
3.85187
 30
0.000000
  70
    32
  0
VERTEX
  8
0
  5
857
 10
12.9295
 20
3.86289
 30
0.000000
  70
    32
  0
VERTEX
  8
0
  5
858
 10
12.9200
 20
3.87393
 30
0.000000
  70
    32
  0
VERTEX
  8
0
  5
859
 10
12.9106
 20
3.88500
 30
0.000000
  70
    32
  0
VERTEX
  8
0
  5
85A
 10
12.9012
 20
3.89608
 30
0.000000
  70
    32
  0
VERTEX
  8
0
  5
85B
 10
12.8918
 20
3.90719
 30
0.000000
  70
    32
  0
VERTEX
  8
0
  5
85C
 10
12.8824
 20
3.91832
 30
0.000000
  70
    32
  0
VERTEX
  8
0
  5
85D
 10
12.8731
 20
3.92947
 30
0.000000
  70
    32
  0
VERTEX
  8
0
  5
85E
 10
12.8638
 20
3.94065
 30
0.000000
  70
    32
  0
VERTEX
  8
0
  5
85F
 10
12.8545
 20
3.95185
 30
0.000000
  70
    32
  0
VERTEX
  8
0
  5
860
 10
12.8452
 20
3.96307
 30
0.000000
  70
    32
  0
VERTEX
  8
0
  5
861
 10
12.8359
 20
3.97431
 30
0.000000
  70
    32
  0
VERTEX
  8
0
  5
862
 10
12.8267
 20
3.98557
 30
0.000000
  70
    32
  0
VERTEX
  8
0
  5
863
 10
12.8174
 20
3.99686
 30
0.000000
  70
    32
  0
VERTEX
  8
0
  5
864
 10
12.8082
 20
4.00816
 30
0.000000
  70
    32
  0
VERTEX
  8
0
  5
865
 10
12.7991
 20
4.01949
 30
0.000000
  70
    32
  0
VERTEX
  8
0
  5
866
 10
12.7899
 20
4.03084
 30
0.000000
  70
    32
  0
VERTEX
  8
0
  5
867
 10
12.7807
 20
4.04222
 30
0.000000
  70
    32
  0
VERTEX
  8
0
  5
868
 10
12.7716
 20
4.05361
 30
0.000000
  70
    32
  0
VERTEX
  8
0
  5
869
 10
12.7625
 20
4.06503
 30
0.000000
  70
    32
  0
VERTEX
  8
0
  5
86A
 10
12.7534
 20
4.07646
 30
0.000000
  70
    32
  0
VERTEX
  8
0
  5
86B
 10
12.7443
 20
4.08792
 30
0.000000
  70
    32
  0
VERTEX
  8
0
  5
86C
 10
12.7353
 20
4.09940
 30
0.000000
  70
    32
  0
VERTEX
  8
0
  5
86D
 10
12.7263
 20
4.11090
 30
0.000000
  70
    32
  0
VERTEX
  8
0
  5
86E
 10
12.7173
 20
4.12242
 30
0.000000
  70
    32
  0
VERTEX
  8
0
  5
86F
 10
12.7083
 20
4.13397
 30
0.000000
  70
    32
  0
VERTEX
  8
0
  5
870
 10
12.6993
 20
4.14553
 30
0.000000
  70
    32
  0
VERTEX
  8
0
  5
871
 10
12.6903
 20
4.15711
 30
0.000000
  70
    32
  0
VERTEX
  8
0
  5
872
 10
12.6814
 20
4.16872
 30
0.000000
  70
    32
  0
VERTEX
  8
0
  5
873
 10
12.6725
 20
4.18034
 30
0.000000
  70
    32
  0
VERTEX
  8
0
  5
874
 10
12.6636
 20
4.19199
 30
0.000000
  70
    32
  0
VERTEX
  8
0
  5
875
 10
12.6547
 20
4.20366
 30
0.000000
  70
    32
  0
VERTEX
  8
0
  5
876
 10
12.6459
 20
4.21534
 30
0.000000
  70
    32
  0
VERTEX
  8
0
  5
877
 10
12.6370
 20
4.22705
 30
0.000000
  70
    32
  0
VERTEX
  8
0
  5
878
 10
12.6282
 20
4.23878
 30
0.000000
  70
    32
  0
VERTEX
  8
0
  5
879
 10
12.6194
 20
4.25053
 30
0.000000
  70
    32
  0
VERTEX
  8
0
  5
87A
 10
12.6107
 20
4.26229
 30
0.000000
  70
    32
  0
VERTEX
  8
0
  5
87B
 10
12.6019
 20
4.27408
 30
0.000000
  70
    32
  0
VERTEX
  8
0
  5
87C
 10
12.5932
 20
4.28589
 30
0.000000
  70
    32
  0
VERTEX
  8
0
  5
87D
 10
12.5844
 20
4.29772
 30
0.000000
  70
    32
  0
VERTEX
  8
0
  5
87E
 10
12.5758
 20
4.30956
 30
0.000000
  70
    32
  0
VERTEX
  8
0
  5
87F
 10
12.5671
 20
4.32143
 30
0.000000
  70
    32
  0
VERTEX
  8
0
  5
880
 10
12.5584
 20
4.33332
 30
0.000000
  70
    32
  0
VERTEX
  8
0
  5
881
 10
12.5498
 20
4.34522
 30
0.000000
  70
    32
  0
VERTEX
  8
0
  5
882
 10
12.5412
 20
4.35715
 30
0.000000
  70
    32
  0
VERTEX
  8
0
  5
883
 10
12.5326
 20
4.36909
 30
0.000000
  70
    32
  0
VERTEX
  8
0
  5
884
 10
12.5240
 20
4.38105
 30
0.000000
  70
    32
  0
VERTEX
  8
0
  5
885
 10
12.5154
 20
4.39304
 30
0.000000
  70
    32
  0
VERTEX
  8
0
  5
886
 10
12.5069
 20
4.40504
 30
0.000000
  70
    32
  0
VERTEX
  8
0
  5
887
 10
12.4984
 20
4.41706
 30
0.000000
  70
    32
  0
VERTEX
  8
0
  5
888
 10
12.4899
 20
4.42910
 30
0.000000
  70
    32
  0
VERTEX
  8
0
  5
889
 10
12.4814
 20
4.44116
 30
0.000000
  70
    32
  0
VERTEX
  8
0
  5
88A
 10
12.4729
 20
4.45323
 30
0.000000
  70
    32
  0
VERTEX
  8
0
  5
88B
 10
12.4645
 20
4.46533
 30
0.000000
  70
    32
  0
VERTEX
  8
0
  5
88C
 10
12.4561
 20
4.47744
 30
0.000000
  70
    32
  0
VERTEX
  8
0
  5
88D
 10
12.4477
 20
4.48958
 30
0.000000
  70
    32
  0
VERTEX
  8
0
  5
88E
 10
12.4393
 20
4.50173
 30
0.000000
  70
    32
  0
VERTEX
  8
0
  5
88F
 10
12.4309
 20
4.51390
 30
0.000000
  70
    32
  0
VERTEX
  8
0
  5
890
 10
12.4226
 20
4.52609
 30
0.000000
  70
    32
  0
VERTEX
  8
0
  5
891
 10
12.4142
 20
4.53829
 30
0.000000
  70
    32
  0
VERTEX
  8
0
  5
892
 10
12.4059
 20
4.55052
 30
0.000000
  70
    32
  0
VERTEX
  8
0
  5
893
 10
12.3976
 20
4.56276
 30
0.000000
  70
    32
  0
VERTEX
  8
0
  5
894
 10
12.3894
 20
4.57502
 30
0.000000
  70
    32
  0
VERTEX
  8
0
  5
895
 10
12.3811
 20
4.58730
 30
0.000000
  70
    32
  0
VERTEX
  8
0
  5
896
 10
12.3729
 20
4.59959
 30
0.000000
  70
    32
  0
VERTEX
  8
0
  5
897
 10
12.3647
 20
4.61191
 30
0.000000
  70
    32
  0
VERTEX
  8
0
  5
898
 10
12.3565
 20
4.62424
 30
0.000000
  70
    32
  0
VERTEX
  8
0
  5
899
 10
12.3483
 20
4.63658
 30
0.000000
  70
    32
  0
VERTEX
  8
0
  5
89A
 10
12.3402
 20
4.64895
 30
0.000000
  70
    32
  0
VERTEX
  8
0
  5
89B
 10
12.3321
 20
4.66133
 30
0.000000
  70
    32
  0
VERTEX
  8
0
  5
89C
 10
12.3240
 20
4.67373
 30
0.000000
  70
    32
  0
VERTEX
  8
0
  5
89D
 10
12.3159
 20
4.68615
 30
0.000000
  70
    32
  0
VERTEX
  8
0
  5
89E
 10
12.3078
 20
4.69858
 30
0.000000
  70
    32
  0
VERTEX
  8
0
  5
89F
 10
12.2997
 20
4.71103
 30
0.000000
  70
    32
  0
VERTEX
  8
0
  5
8A0
 10
12.2917
 20
4.72350
 30
0.000000
  70
    32
  0
VERTEX
  8
0
  5
8A1
 10
12.2837
 20
4.73598
 30
0.000000
  70
    32
  0
VERTEX
  8
0
  5
8A2
 10
12.2757
 20
4.74848
 30
0.000000
  70
    32
  0
VERTEX
  8
0
  5
8A3
 10
12.2677
 20
4.76100
 30
0.000000
  70
    32
  0
VERTEX
  8
0
  5
8A4
 10
12.2598
 20
4.77353
 30
0.000000
  70
    32
  0
VERTEX
  8
0
  5
8A5
 10
12.2519
 20
4.78608
 30
0.000000
  70
    32
  0
VERTEX
  8
0
  5
8A6
 10
12.2439
 20
4.79865
 30
0.000000
  70
    32
  0
VERTEX
  8
0
  5
8A7
 10
12.2361
 20
4.81124
 30
0.000000
  70
    32
  0
VERTEX
  8
0
  5
8A8
 10
12.2282
 20
4.82383
 30
0.000000
  70
    32
  0
VERTEX
  8
0
  5
8A9
 10
12.2203
 20
4.83645
 30
0.000000
  70
    32
  0
VERTEX
  8
0
  5
8AA
 10
12.2125
 20
4.84908
 30
0.000000
  70
    32
  0
VERTEX
  8
0
  5
8AB
 10
12.2047
 20
4.86173
 30
0.000000
  70
    32
  0
VERTEX
  8
0
  5
8AC
 10
12.1969
 20
4.87440
 30
0.000000
  70
    32
  0
VERTEX
  8
0
  5
8AD
 10
12.1891
 20
4.88708
 30
0.000000
  70
    32
  0
VERTEX
  8
0
  5
8AE
 10
12.1813
 20
4.89977
 30
0.000000
  70
    32
  0
VERTEX
  8
0
  5
8AF
 10
12.1736
 20
4.91249
 30
0.000000
  70
    32
  0
VERTEX
  8
0
  5
8B0
 10
12.1659
 20
4.92522
 30
0.000000
  70
    32
  0
VERTEX
  8
0
  5
8B1
 10
12.1582
 20
4.93796
 30
0.000000
  70
    32
  0
VERTEX
  8
0
  5
8B2
 10
12.1505
 20
4.95072
 30
0.000000
  70
    32
  0
VERTEX
  8
0
  5
8B3
 10
12.1428
 20
4.96350
 30
0.000000
  70
    32
  0
VERTEX
  8
0
  5
8B4
 10
12.1352
 20
4.97629
 30
0.000000
  70
    32
  0
VERTEX
  8
0
  5
8B5
 10
12.1276
 20
4.98910
 30
0.000000
  70
    32
  0
VERTEX
  8
0
  5
8B6
 10
12.1200
 20
5.00192
 30
0.000000
  70
    32
  0
VERTEX
  8
0
  5
8B7
 10
12.1124
 20
5.01476
 30
0.000000
  70
    32
  0
VERTEX
  8
0
  5
8B8
 10
12.1048
 20
5.02761
 30
0.000000
  70
    32
  0
VERTEX
  8
0
  5
8B9
 10
12.0972
 20
5.04048
 30
0.000000
  70
    32
  0
VERTEX
  8
0
  5
8BA
 10
12.0897
 20
5.05337
 30
0.000000
  70
    32
  0
VERTEX
  8
0
  5
8BB
 10
12.0822
 20
5.06627
 30
0.000000
  70
    32
  0
VERTEX
  8
0
  5
8BC
 10
12.0747
 20
5.07919
 30
0.000000
  70
    32
  0
VERTEX
  8
0
  5
8BD
 10
12.0672
 20
5.09212
 30
0.000000
  70
    32
  0
VERTEX
  8
0
  5
8BE
 10
12.0598
 20
5.10506
 30
0.000000
  70
    32
  0
VERTEX
  8
0
  5
8BF
 10
12.0523
 20
5.11803
 30
0.000000
  70
    32
  0
VERTEX
  8
0
  5
8C0
 10
12.0449
 20
5.13100
 30
0.000000
  70
    32
  0
VERTEX
  8
0
  5
8C1
 10
12.0375
 20
5.14399
 30
0.000000
  70
    32
  0
VERTEX
  8
0
  5
8C2
 10
12.0301
 20
5.15700
 30
0.000000
  70
    32
  0
VERTEX
  8
0
  5
8C3
 10
12.0228
 20
5.17002
 30
0.000000
  70
    32
  0
VERTEX
  8
0
  5
8C4
 10
12.0154
 20
5.18306
 30
0.000000
  70
    32
  0
VERTEX
  8
0
  5
8C5
 10
12.0081
 20
5.19611
 30
0.000000
  70
    32
  0
VERTEX
  8
0
  5
8C6
 10
12.0008
 20
5.20918
 30
0.000000
  70
    32
  0
VERTEX
  8
0
  5
8C7
 10
11.9935
 20
5.22226
 30
0.000000
  70
    32
  0
VERTEX
  8
0
  5
8C8
 10
11.9862
 20
5.23535
 30
0.000000
  70
    32
  0
VERTEX
  8
0
  5
8C9
 10
11.9790
 20
5.24846
 30
0.000000
  70
    32
  0
VERTEX
  8
0
  5
8CA
 10
11.9717
 20
5.26159
 30
0.000000
  70
    32
  0
VERTEX
  8
0
  5
8CB
 10
11.9645
 20
5.27473
 30
0.000000
  70
    32
  0
VERTEX
  8
0
  5
8CC
 10
11.9573
 20
5.28788
 30
0.000000
  70
    32
  0
VERTEX
  8
0
  5
8CD
 10
11.9501
 20
5.30105
 30
0.000000
  70
    32
  0
VERTEX
  8
0
  5
8CE
 10
11.9430
 20
5.31423
 30
0.000000
  70
    32
  0
VERTEX
  8
0
  5
8CF
 10
11.9358
 20
5.32743
 30
0.000000
  70
    32
  0
VERTEX
  8
0
  5
8D0
 10
11.9287
 20
5.34064
 30
0.000000
  70
    32
  0
VERTEX
  8
0
  5
8D1
 10
11.9216
 20
5.35387
 30
0.000000
  70
    32
  0
VERTEX
  8
0
  5
8D2
 10
11.9145
 20
5.36711
 30
0.000000
  70
    32
  0
VERTEX
  8
0
  5
8D3
 10
11.9074
 20
5.38036
 30
0.000000
  70
    32
  0
VERTEX
  8
0
  5
8D4
 10
11.9003
 20
5.39363
 30
0.000000
  70
    32
  0
VERTEX
  8
0
  5
8D5
 10
11.8933
 20
5.40691
 30
0.000000
  70
    32
  0
VERTEX
  8
0
  5
8D6
 10
11.8863
 20
5.42020
 30
0.000000
  70
    32
  0
VERTEX
  8
0
  5
8D7
 10
11.8793
 20
5.43351
 30
0.000000
  70
    32
  0
VERTEX
  8
0
  5
8D8
 10
11.8723
 20
5.44684
 30
0.000000
  70
    32
  0
VERTEX
  8
0
  5
8D9
 10
11.8653
 20
5.46017
 30
0.000000
  70
    32
  0
VERTEX
  8
0
  5
8DA
 10
11.8584
 20
5.47352
 30
0.000000
  70
    32
  0
VERTEX
  8
0
  5
8DB
 10
11.8514
 20
5.48689
 30
0.000000
  70
    32
  0
VERTEX
  8
0
  5
8DC
 10
11.8445
 20
5.50026
 30
0.000000
  70
    32
  0
VERTEX
  8
0
  5
8DD
 10
11.8376
 20
5.51366
 30
0.000000
  70
    32
  0
VERTEX
  8
0
  5
8DE
 10
11.8307
 20
5.52706
 30
0.000000
  70
    32
  0
VERTEX
  8
0
  5
8DF
 10
11.8239
 20
5.54048
 30
0.000000
  70
    32
  0
VERTEX
  8
0
  5
8E0
 10
11.8170
 20
5.55391
 30
0.000000
  70
    32
  0
VERTEX
  8
0
  5
8E1
 10
11.8102
 20
5.56735
 30
0.000000
  70
    32
  0
VERTEX
  8
0
  5
8E2
 10
11.8034
 20
5.58081
 30
0.000000
  70
    32
  0
VERTEX
  8
0
  5
8E3
 10
11.7966
 20
5.59428
 30
0.000000
  70
    32
  0
VERTEX
  8
0
  5
8E4
 10
11.7898
 20
5.60777
 30
0.000000
  70
    32
  0
VERTEX
  8
0
  5
8E5
 10
11.7830
 20
5.62127
 30
0.000000
  70
    32
  0
VERTEX
  8
0
  5
8E6
 10
11.7763
 20
5.63478
 30
0.000000
  70
    32
  0
VERTEX
  8
0
  5
8E7
 10
11.7696
 20
5.64830
 30
0.000000
  70
    32
  0
VERTEX
  8
0
  5
8E8
 10
11.7629
 20
5.66184
 30
0.000000
  70
    32
  0
VERTEX
  8
0
  5
8E9
 10
11.7562
 20
5.67539
 30
0.000000
  70
    32
  0
VERTEX
  8
0
  5
8EA
 10
11.7495
 20
5.68895
 30
0.000000
  70
    32
  0
VERTEX
  8
0
  5
8EB
 10
11.7428
 20
5.70252
 30
0.000000
  70
    32
  0
VERTEX
  8
0
  5
8EC
 10
11.7362
 20
5.71611
 30
0.000000
  70
    32
  0
VERTEX
  8
0
  5
8ED
 10
11.7296
 20
5.72971
 30
0.000000
  70
    32
  0
VERTEX
  8
0
  5
8EE
 10
11.7230
 20
5.74332
 30
0.000000
  70
    32
  0
VERTEX
  8
0
  5
8EF
 10
11.7164
 20
5.75695
 30
0.000000
  70
    32
  0
VERTEX
  8
0
  5
8F0
 10
11.7098
 20
5.77059
 30
0.000000
  70
    32
  0
VERTEX
  8
0
  5
8F1
 10
11.7032
 20
5.78424
 30
0.000000
  70
    32
  0
VERTEX
  8
0
  5
8F2
 10
11.6967
 20
5.79790
 30
0.000000
  70
    32
  0
VERTEX
  8
0
  5
8F3
 10
11.6902
 20
5.81158
 30
0.000000
  70
    32
  0
VERTEX
  8
0
  5
8F4
 10
11.6837
 20
5.82526
 30
0.000000
  70
    32
  0
VERTEX
  8
0
  5
8F5
 10
11.6772
 20
5.83896
 30
0.000000
  70
    32
  0
VERTEX
  8
0
  5
8F6
 10
11.6707
 20
5.85268
 30
0.000000
  70
    32
  0
VERTEX
  8
0
  5
8F7
 10
11.6643
 20
5.86640
 30
0.000000
  70
    32
  0
VERTEX
  8
0
  5
8F8
 10
11.6578
 20
5.88014
 30
0.000000
  70
    32
  0
VERTEX
  8
0
  5
8F9
 10
11.6514
 20
5.89389
 30
0.000000
  70
    32
  0
VERTEX
  8
0
  5
8FA
 10
11.6450
 20
5.90765
 30
0.000000
  70
    32
  0
VERTEX
  8
0
  5
8FB
 10
11.6386
 20
5.92142
 30
0.000000
  70
    32
  0
VERTEX
  8
0
  5
8FC
 10
11.6322
 20
5.93520
 30
0.000000
  70
    32
  0
VERTEX
  8
0
  5
8FD
 10
11.6259
 20
5.94900
 30
0.000000
  70
    32
  0
VERTEX
  8
0
  5
8FE
 10
11.6195
 20
5.96281
 30
0.000000
  70
    32
  0
VERTEX
  8
0
  5
8FF
 10
11.6132
 20
5.97663
 30
0.000000
  70
    32
  0
VERTEX
  8
0
  5
900
 10
11.6069
 20
5.99046
 30
0.000000
  70
    32
  0
VERTEX
  8
0
  5
901
 10
11.6006
 20
6.00430
 30
0.000000
  70
    32
  0
VERTEX
  8
0
  5
902
 10
11.5943
 20
6.01815
 30
0.000000
  70
    32
  0
VERTEX
  8
0
  5
903
 10
11.5880
 20
6.03202
 30
0.000000
  70
    32
  0
VERTEX
  8
0
  5
904
 10
11.5818
 20
6.04590
 30
0.000000
  70
    32
  0
VERTEX
  8
0
  5
905
 10
11.5756
 20
6.05978
 30
0.000000
  70
    32
  0
VERTEX
  8
0
  5
906
 10
11.5694
 20
6.07368
 30
0.000000
  70
    32
  0
VERTEX
  8
0
  5
907
 10
11.5632
 20
6.08759
 30
0.000000
  70
    32
  0
VERTEX
  8
0
  5
908
 10
11.5570
 20
6.10151
 30
0.000000
  70
    32
  0
VERTEX
  8
0
  5
909
 10
11.5508
 20
6.11545
 30
0.000000
  70
    32
  0
VERTEX
  8
0
  5
90A
 10
11.5447
 20
6.12939
 30
0.000000
  70
    32
  0
VERTEX
  8
0
  5
90B
 10
11.5385
 20
6.14334
 30
0.000000
  70
    32
  0
VERTEX
  8
0
  5
90C
 10
11.5324
 20
6.15730
 30
0.000000
  70
    32
  0
VERTEX
  8
0
  5
90D
 10
11.5263
 20
6.17128
 30
0.000000
  70
    32
  0
VERTEX
  8
0
  5
90E
 10
11.5202
 20
6.18526
 30
0.000000
  70
    32
  0
VERTEX
  8
0
  5
90F
 10
11.5142
 20
6.19926
 30
0.000000
  70
    32
  0
VERTEX
  8
0
  5
910
 10
11.5081
 20
6.21326
 30
0.000000
  70
    32
  0
VERTEX
  8
0
  5
911
 10
11.5021
 20
6.22728
 30
0.000000
  70
    32
  0
VERTEX
  8
0
  5
912
 10
11.4960
 20
6.24131
 30
0.000000
  70
    32
  0
VERTEX
  8
0
  5
913
 10
11.4900
 20
6.25534
 30
0.000000
  70
    32
  0
VERTEX
  8
0
  5
914
 10
11.4841
 20
6.26939
 30
0.000000
  70
    32
  0
VERTEX
  8
0
  5
915
 10
11.4781
 20
6.28345
 30
0.000000
  70
    32
  0
VERTEX
  8
0
  5
916
 10
11.4721
 20
6.29752
 30
0.000000
  70
    32
  0
VERTEX
  8
0
  5
917
 10
11.4662
 20
6.31160
 30
0.000000
  70
    32
  0
VERTEX
  8
0
  5
918
 10
11.4603
 20
6.32568
 30
0.000000
  70
    32
  0
VERTEX
  8
0
  5
919
 10
11.4543
 20
6.33978
 30
0.000000
  70
    32
  0
VERTEX
  8
0
  5
91A
 10
11.4484
 20
6.35389
 30
0.000000
  70
    32
  0
VERTEX
  8
0
  5
91B
 10
11.4426
 20
6.36801
 30
0.000000
  70
    32
  0
VERTEX
  8
0
  5
91C
 10
11.4367
 20
6.38214
 30
0.000000
  70
    32
  0
VERTEX
  8
0
  5
91D
 10
11.4308
 20
6.39628
 30
0.000000
  70
    32
  0
VERTEX
  8
0
  5
91E
 10
11.4250
 20
6.41043
 30
0.000000
  70
    32
  0
VERTEX
  8
0
  5
91F
 10
11.4192
 20
6.42459
 30
0.000000
  70
    32
  0
VERTEX
  8
0
  5
920
 10
11.4134
 20
6.43876
 30
0.000000
  70
    32
  0
VERTEX
  8
0
  5
921
 10
11.4076
 20
6.45294
 30
0.000000
  70
    32
  0
VERTEX
  8
0
  5
922
 10
11.4018
 20
6.46712
 30
0.000000
  70
    32
  0
VERTEX
  8
0
  5
923
 10
11.3961
 20
6.48132
 30
0.000000
  70
    32
  0
VERTEX
  8
0
  5
924
 10
11.3903
 20
6.49553
 30
0.000000
  70
    32
  0
VERTEX
  8
0
  5
925
 10
11.3846
 20
6.50975
 30
0.000000
  70
    32
  0
VERTEX
  8
0
  5
926
 10
11.3789
 20
6.52398
 30
0.000000
  70
    32
  0
VERTEX
  8
0
  5
927
 10
11.3732
 20
6.53822
 30
0.000000
  70
    32
  0
VERTEX
  8
0
  5
928
 10
11.3675
 20
6.55246
 30
0.000000
  70
    32
  0
VERTEX
  8
0
  5
929
 10
11.3618
 20
6.56672
 30
0.000000
  70
    32
  0
VERTEX
  8
0
  5
92A
 10
11.3562
 20
6.58099
 30
0.000000
  70
    32
  0
VERTEX
  8
0
  5
92B
 10
11.3506
 20
6.59526
 30
0.000000
  70
    32
  0
VERTEX
  8
0
  5
92C
 10
11.3449
 20
6.60955
 30
0.000000
  70
    32
  0
VERTEX
  8
0
  5
92D
 10
11.3393
 20
6.62384
 30
0.000000
  70
    32
  0
VERTEX
  8
0
  5
92E
 10
11.3337
 20
6.63815
 30
0.000000
  70
    32
  0
VERTEX
  8
0
  5
92F
 10
11.3281
 20
6.65246
 30
0.000000
  70
    32
  0
VERTEX
  8
0
  5
930
 10
11.3226
 20
6.66678
 30
0.000000
  70
    32
  0
VERTEX
  8
0
  5
931
 10
11.3170
 20
6.68112
 30
0.000000
  70
    32
  0
VERTEX
  8
0
  5
932
 10
11.3115
 20
6.69546
 30
0.000000
  70
    32
  0
VERTEX
  8
0
  5
933
 10
11.3060
 20
6.70981
 30
0.000000
  70
    32
  0
VERTEX
  8
0
  5
934
 10
11.3005
 20
6.72417
 30
0.000000
  70
    32
  0
VERTEX
  8
0
  5
935
 10
11.2950
 20
6.73854
 30
0.000000
  70
    32
  0
VERTEX
  8
0
  5
936
 10
11.2895
 20
6.75292
 30
0.000000
  70
    32
  0
VERTEX
  8
0
  5
937
 10
11.2840
 20
6.76731
 30
0.000000
  70
    32
  0
VERTEX
  8
0
  5
938
 10
11.2786
 20
6.78170
 30
0.000000
  70
    32
  0
VERTEX
  8
0
  5
939
 10
11.2732
 20
6.79611
 30
0.000000
  70
    32
  0
VERTEX
  8
0
  5
93A
 10
11.2677
 20
6.81053
 30
0.000000
  70
    32
  0
VERTEX
  8
0
  5
93B
 10
11.2623
 20
6.82495
 30
0.000000
  70
    32
  0
VERTEX
  8
0
  5
93C
 10
11.2569
 20
6.83938
 30
0.000000
  70
    32
  0
VERTEX
  8
0
  5
93D
 10
11.2516
 20
6.85382
 30
0.000000
  70
    32
  0
VERTEX
  8
0
  5
93E
 10
11.2462
 20
6.86828
 30
0.000000
  70
    32
  0
VERTEX
  8
0
  5
93F
 10
11.2409
 20
6.88273
 30
0.000000
  70
    32
  0
VERTEX
  8
0
  5
940
 10
11.2355
 20
6.89720
 30
0.000000
  70
    32
  0
VERTEX
  8
0
  5
941
 10
11.2302
 20
6.91168
 30
0.000000
  70
    32
  0
VERTEX
  8
0
  5
942
 10
11.2249
 20
6.92617
 30
0.000000
  70
    32
  0
VERTEX
  8
0
  5
943
 10
11.2196
 20
6.94066
 30
0.000000
  70
    32
  0
VERTEX
  8
0
  5
944
 10
11.2143
 20
6.95516
 30
0.000000
  70
    32
  0
VERTEX
  8
0
  5
945
 10
11.2091
 20
6.96968
 30
0.000000
  70
    32
  0
VERTEX
  8
0
  5
946
 10
11.2038
 20
6.98420
 30
0.000000
  70
    32
  0
VERTEX
  8
0
  5
947
 10
11.1986
 20
6.99873
 30
0.000000
  70
    32
  0
VERTEX
  8
0
  5
948
 10
11.1934
 20
7.01326
 30
0.000000
  70
    32
  0
VERTEX
  8
0
  5
949
 10
11.1881
 20
7.02781
 30
0.000000
  70
    32
  0
VERTEX
  8
0
  5
94A
 10
11.1830
 20
7.04236
 30
0.000000
  70
    32
  0
VERTEX
  8
0
  5
94B
 10
11.1778
 20
7.05693
 30
0.000000
  70
    32
  0
VERTEX
  8
0
  5
94C
 10
11.1726
 20
7.07150
 30
0.000000
  70
    32
  0
VERTEX
  8
0
  5
94D
 10
11.1675
 20
7.08608
 30
0.000000
  70
    32
  0
VERTEX
  8
0
  5
94E
 10
11.1623
 20
7.10067
 30
0.000000
  70
    32
  0
VERTEX
  8
0
  5
94F
 10
11.1572
 20
7.11526
 30
0.000000
  70
    32
  0
VERTEX
  8
0
  5
950
 10
11.1521
 20
7.12987
 30
0.000000
  70
    32
  0
VERTEX
  8
0
  5
951
 10
11.1470
 20
7.14448
 30
0.000000
  70
    32
  0
VERTEX
  8
0
  5
952
 10
11.1419
 20
7.15910
 30
0.000000
  70
    32
  0
VERTEX
  8
0
  5
953
 10
11.1368
 20
7.17373
 30
0.000000
  70
    32
  0
VERTEX
  8
0
  5
954
 10
11.1318
 20
7.18837
 30
0.000000
  70
    32
  0
VERTEX
  8
0
  5
955
 10
11.1267
 20
7.20301
 30
0.000000
  70
    32
  0
VERTEX
  8
0
  5
956
 10
11.1217
 20
7.21766
 30
0.000000
  70
    32
  0
VERTEX
  8
0
  5
957
 10
11.1167
 20
7.23232
 30
0.000000
  70
    32
  0
VERTEX
  8
0
  5
958
 10
11.1116
 20
7.24699
 30
0.000000
  70
    32
  0
VERTEX
  8
0
  5
959
 10
11.1067
 20
7.26167
 30
0.000000
  70
    32
  0
VERTEX
  8
0
  5
95A
 10
11.1017
 20
7.27636
 30
0.000000
  70
    32
  0
VERTEX
  8
0
  5
95B
 10
11.0967
 20
7.29105
 30
0.000000
  70
    32
  0
VERTEX
  8
0
  5
95C
 10
11.0917
 20
7.30575
 30
0.000000
  70
    32
  0
VERTEX
  8
0
  5
95D
 10
11.0868
 20
7.32046
 30
0.000000
  70
    32
  0
VERTEX
  8
0
  5
95E
 10
11.0819
 20
7.33517
 30
0.000000
  70
    32
  0
VERTEX
  8
0
  5
95F
 10
11.0770
 20
7.34990
 30
0.000000
  70
    32
  0
VERTEX
  8
0
  5
960
 10
11.0721
 20
7.36463
 30
0.000000
  70
    32
  0
VERTEX
  8
0
  5
961
 10
11.0672
 20
7.37937
 30
0.000000
  70
    32
  0
VERTEX
  8
0
  5
962
 10
11.0623
 20
7.39411
 30
0.000000
  70
    32
  0
VERTEX
  8
0
  5
963
 10
11.0574
 20
7.40887
 30
0.000000
  70
    32
  0
VERTEX
  8
0
  5
964
 10
11.0526
 20
7.42363
 30
0.000000
  70
    32
  0
VERTEX
  8
0
  5
965
 10
11.0477
 20
7.43840
 30
0.000000
  70
    32
  0
VERTEX
  8
0
  5
966
 10
11.0429
 20
7.45318
 30
0.000000
  70
    32
  0
VERTEX
  8
0
  5
967
 10
11.0381
 20
7.46796
 30
0.000000
  70
    32
  0
VERTEX
  8
0
  5
968
 10
11.0333
 20
7.48275
 30
0.000000
  70
    32
  0
VERTEX
  8
0
  5
969
 10
11.0285
 20
7.49755
 30
0.000000
  70
    32
  0
VERTEX
  8
0
  5
96A
 10
11.0237
 20
7.51236
 30
0.000000
  70
    32
  0
VERTEX
  8
0
  5
96B
 10
11.0190
 20
7.52717
 30
0.000000
  70
    32
  0
VERTEX
  8
0
  5
96C
 10
11.0142
 20
7.54199
 30
0.000000
  70
    32
  0
VERTEX
  8
0
  5
96D
 10
11.0095
 20
7.55682
 30
0.000000
  70
    32
  0
VERTEX
  8
0
  5
96E
 10
11.0048
 20
7.57165
 30
0.000000
  70
    32
  0
VERTEX
  8
0
  5
96F
 10
11.0000
 20
7.58649
 30
0.000000
  70
    32
  0
VERTEX
  8
0
  5
970
 10
10.9953
 20
7.60134
 30
0.000000
  70
    32
  0
VERTEX
  8
0
  5
971
 10
10.9907
 20
7.61620
 30
0.000000
  70
    32
  0
VERTEX
  8
0
  5
972
 10
10.9860
 20
7.63106
 30
0.000000
  70
    32
  0
VERTEX
  8
0
  5
973
 10
10.9813
 20
7.64593
 30
0.000000
  70
    32
  0
VERTEX
  8
0
  5
974
 10
10.9767
 20
7.66081
 30
0.000000
  70
    32
  0
VERTEX
  8
0
  5
975
 10
10.9720
 20
7.67569
 30
0.000000
  70
    32
  0
VERTEX
  8
0
  5
976
 10
10.9674
 20
7.69058
 30
0.000000
  70
    32
  0
VERTEX
  8
0
  5
977
 10
10.9628
 20
7.70548
 30
0.000000
  70
    32
  0
VERTEX
  8
0
  5
978
 10
10.9582
 20
7.72038
 30
0.000000
  70
    32
  0
VERTEX
  8
0
  5
979
 10
10.9536
 20
7.73529
 30
0.000000
  70
    32
  0
VERTEX
  8
0
  5
97A
 10
10.9490
 20
7.75021
 30
0.000000
  70
    32
  0
VERTEX
  8
0
  5
97B
 10
10.9444
 20
7.76513
 30
0.000000
  70
    32
  0
VERTEX
  8
0
  5
97C
 10
10.9399
 20
7.78006
 30
0.000000
  70
    32
  0
VERTEX
  8
0
  5
97D
 10
10.9353
 20
7.79499
 30
0.000000
  70
    32
  0
VERTEX
  8
0
  5
97E
 10
10.9308
 20
7.80993
 30
0.000000
  70
    32
  0
VERTEX
  8
0
  5
97F
 10
10.9263
 20
7.82488
 30
0.000000
  70
    32
  0
VERTEX
  8
0
  5
980
 10
10.9218
 20
7.83984
 30
0.000000
  70
    32
  0
VERTEX
  8
0
  5
981
 10
10.9173
 20
7.85480
 30
0.000000
  70
    32
  0
VERTEX
  8
0
  5
982
 10
10.9128
 20
7.86976
 30
0.000000
  70
    32
  0
VERTEX
  8
0
  5
983
 10
10.9083
 20
7.88473
 30
0.000000
  70
    32
  0
VERTEX
  8
0
  5
984
 10
10.9038
 20
7.89971
 30
0.000000
  70
    32
  0
VERTEX
  8
0
  5
985
 10
10.8994
 20
7.91470
 30
0.000000
  70
    32
  0
VERTEX
  8
0
  5
986
 10
10.8949
 20
7.92969
 30
0.000000
  70
    32
  0
VERTEX
  8
0
  5
987
 10
10.8905
 20
7.94468
 30
0.000000
  70
    32
  0
VERTEX
  8
0
  5
988
 10
10.8861
 20
7.95968
 30
0.000000
  70
    32
  0
VERTEX
  8
0
  5
989
 10
10.8817
 20
7.97469
 30
0.000000
  70
    32
  0
VERTEX
  8
0
  5
98A
 10
10.8773
 20
7.98970
 30
0.000000
  70
    32
  0
VERTEX
  8
0
  5
98B
 10
10.8729
 20
8.00472
 30
0.000000
  70
    32
  0
VERTEX
  8
0
  5
98C
 10
10.8685
 20
8.01974
 30
0.000000
  70
    32
  0
VERTEX
  8
0
  5
98D
 10
10.8642
 20
8.03477
 30
0.000000
  70
    32
  0
VERTEX
  8
0
  5
98E
 10
10.8598
 20
8.04981
 30
0.000000
  70
    32
  0
VERTEX
  8
0
  5
98F
 10
10.8555
 20
8.06485
 30
0.000000
  70
    32
  0
VERTEX
  8
0
  5
990
 10
10.8512
 20
8.07990
 30
0.000000
  70
    32
  0
VERTEX
  8
0
  5
991
 10
10.8469
 20
8.09495
 30
0.000000
  70
    32
  0
VERTEX
  8
0
  5
992
 10
10.8426
 20
8.11000
 30
0.000000
  70
    32
  0
VERTEX
  8
0
  5
993
 10
10.8383
 20
8.12506
 30
0.000000
  70
    32
  0
VERTEX
  8
0
  5
994
 10
10.8340
 20
8.14013
 30
0.000000
  70
    32
  0
VERTEX
  8
0
  5
995
 10
10.8297
 20
8.15520
 30
0.000000
  70
    32
  0
VERTEX
  8
0
  5
996
 10
10.8255
 20
8.17028
 30
0.000000
  70
    32
  0
VERTEX
  8
0
  5
997
 10
10.8212
 20
8.18536
 30
0.000000
  70
    32
  0
VERTEX
  8
0
  5
998
 10
10.8170
 20
8.20045
 30
0.000000
  70
    32
  0
VERTEX
  8
0
  5
999
 10
10.8128
 20
8.21554
 30
0.000000
  70
    32
  0
VERTEX
  8
0
  5
99A
 10
10.8086
 20
8.23064
 30
0.000000
  70
    32
  0
VERTEX
  8
0
  5
99B
 10
10.8044
 20
8.24574
 30
0.000000
  70
    32
  0
VERTEX
  8
0
  5
99C
 10
10.8002
 20
8.26085
 30
0.000000
  70
    32
  0
VERTEX
  8
0
  5
99D
 10
10.7960
 20
8.27596
 30
0.000000
  70
    32
  0
VERTEX
  8
0
  5
99E
 10
10.7918
 20
8.29107
 30
0.000000
  70
    32
  0
VERTEX
  8
0
  5
99F
 10
10.7877
 20
8.30619
 30
0.000000
  70
    32
  0
VERTEX
  8
0
  5
9A0
 10
10.7835
 20
8.32132
 30
0.000000
  70
    32
  0
VERTEX
  8
0
  5
9A1
 10
10.7794
 20
8.33645
 30
0.000000
  70
    32
  0
VERTEX
  8
0
  5
9A2
 10
10.7753
 20
8.35158
 30
0.000000
  70
    32
  0
VERTEX
  8
0
  5
9A3
 10
10.7712
 20
8.36672
 30
0.000000
  70
    32
  0
VERTEX
  8
0
  5
9A4
 10
10.7670
 20
8.38187
 30
0.000000
  70
    32
  0
VERTEX
  8
0
  5
9A5
 10
10.7630
 20
8.39701
 30
0.000000
  70
    32
  0
VERTEX
  8
0
  5
9A6
 10
10.7589
 20
8.41216
 30
0.000000
  70
    32
  0
VERTEX
  8
0
  5
9A7
 10
10.7548
 20
8.42732
 30
0.000000
  70
    32
  0
VERTEX
  8
0
  5
9A8
 10
10.7508
 20
8.44248
 30
0.000000
  70
    32
  0
VERTEX
  8
0
  5
9A9
 10
10.7467
 20
8.45764
 30
0.000000
  70
    32
  0
VERTEX
  8
0
  5
9AA
 10
10.7427
 20
8.47281
 30
0.000000
  70
    32
  0
VERTEX
  8
0
  5
9AB
 10
10.7386
 20
8.48799
 30
0.000000
  70
    32
  0
VERTEX
  8
0
  5
9AC
 10
10.7346
 20
8.50317
 30
0.000000
  70
    32
  0
VERTEX
  8
0
  5
9AD
 10
10.7306
 20
8.51835
 30
0.000000
  70
    32
  0
VERTEX
  8
0
  5
9AE
 10
10.7266
 20
8.53354
 30
0.000000
  70
    32
  0
VERTEX
  8
0
  5
9AF
 10
10.7226
 20
8.54873
 30
0.000000
  70
    32
  0
VERTEX
  8
0
  5
9B0
 10
10.7187
 20
8.56392
 30
0.000000
  70
    32
  0
VERTEX
  8
0
  5
9B1
 10
10.7147
 20
8.57912
 30
0.000000
  70
    32
  0
VERTEX
  8
0
  5
9B2
 10
10.7108
 20
8.59433
 30
0.000000
  70
    32
  0
VERTEX
  8
0
  5
9B3
 10
10.7068
 20
8.60954
 30
0.000000
  70
    32
  0
VERTEX
  8
0
  5
9B4
 10
10.7029
 20
8.62475
 30
0.000000
  70
    32
  0
VERTEX
  8
0
  5
9B5
 10
10.6990
 20
8.63997
 30
0.000000
  70
    32
  0
VERTEX
  8
0
  5
9B6
 10
10.6951
 20
8.65520
 30
0.000000
  70
    32
  0
VERTEX
  8
0
  5
9B7
 10
10.6912
 20
8.67042
 30
0.000000
  70
    32
  0
VERTEX
  8
0
  5
9B8
 10
10.6873
 20
8.68566
 30
0.000000
  70
    32
  0
VERTEX
  8
0
  5
9B9
 10
10.6834
 20
8.70089
 30
0.000000
  70
    32
  0
VERTEX
  8
0
  5
9BA
 10
10.6795
 20
8.71614
 30
0.000000
  70
    32
  0
VERTEX
  8
0
  5
9BB
 10
10.6757
 20
8.73138
 30
0.000000
  70
    32
  0
VERTEX
  8
0
  5
9BC
 10
10.6718
 20
8.74663
 30
0.000000
  70
    32
  0
VERTEX
  8
0
  5
9BD
 10
10.6680
 20
8.76189
 30
0.000000
  70
    32
  0
VERTEX
  8
0
  5
9BE
 10
10.6642
 20
8.77715
 30
0.000000
  70
    32
  0
VERTEX
  8
0
  5
9BF
 10
10.6603
 20
8.79241
 30
0.000000
  70
    32
  0
VERTEX
  8
0
  5
9C0
 10
10.6565
 20
8.80768
 30
0.000000
  70
    32
  0
VERTEX
  8
0
  5
9C1
 10
10.6527
 20
8.82295
 30
0.000000
  70
    32
  0
VERTEX
  8
0
  5
9C2
 10
10.6490
 20
8.83823
 30
0.000000
  70
    32
  0
VERTEX
  8
0
  5
9C3
 10
10.6452
 20
8.85351
 30
0.000000
  70
    32
  0
VERTEX
  8
0
  5
9C4
 10
10.6414
 20
8.86879
 30
0.000000
  70
    32
  0
VERTEX
  8
0
  5
9C5
 10
10.6377
 20
8.88408
 30
0.000000
  70
    32
  0
VERTEX
  8
0
  5
9C6
 10
10.6339
 20
8.89937
 30
0.000000
  70
    32
  0
VERTEX
  8
0
  5
9C7
 10
10.6302
 20
8.91467
 30
0.000000
  70
    32
  0
VERTEX
  8
0
  5
9C8
 10
10.6264
 20
8.92997
 30
0.000000
  70
    32
  0
VERTEX
  8
0
  5
9C9
 10
10.6227
 20
8.94528
 30
0.000000
  70
    32
  0
VERTEX
  8
0
  5
9CA
 10
10.6190
 20
8.96059
 30
0.000000
  70
    32
  0
VERTEX
  8
0
  5
9CB
 10
10.6153
 20
8.97591
 30
0.000000
  70
    32
  0
VERTEX
  8
0
  5
9CC
 10
10.6116
 20
8.99123
 30
0.000000
  70
    32
  0
VERTEX
  8
0
  5
9CD
 10
10.6080
 20
9.00655
 30
0.000000
  70
    32
  0
VERTEX
  8
0
  5
9CE
 10
10.6043
 20
9.02188
 30
0.000000
  70
    32
  0
VERTEX
  8
0
  5
9CF
 10
10.6006
 20
9.03721
 30
0.000000
  70
    32
  0
VERTEX
  8
0
  5
9D0
 10
10.5970
 20
9.05255
 30
0.000000
  70
    32
  0
VERTEX
  8
0
  5
9D1
 10
10.5934
 20
9.06789
 30
0.000000
  70
    32
  0
VERTEX
  8
0
  5
9D2
 10
10.5897
 20
9.08323
 30
0.000000
  70
    32
  0
VERTEX
  8
0
  5
9D3
 10
10.5861
 20
9.09858
 30
0.000000
  70
    32
  0
VERTEX
  8
0
  5
9D4
 10
10.5825
 20
9.11393
 30
0.000000
  70
    32
  0
VERTEX
  8
0
  5
9D5
 10
10.5789
 20
9.12929
 30
0.000000
  70
    32
  0
VERTEX
  8
0
  5
9D6
 10
10.5753
 20
9.14465
 30
0.000000
  70
    32
  0
VERTEX
  8
0
  5
9D7
 10
10.5717
 20
9.16002
 30
0.000000
  70
    32
  0
VERTEX
  8
0
  5
9D8
 10
10.5682
 20
9.17538
 30
0.000000
  70
    32
  0
VERTEX
  8
0
  5
9D9
 10
10.5646
 20
9.19076
 30
0.000000
  70
    32
  0
VERTEX
  8
0
  5
9DA
 10
10.5610
 20
9.20614
 30
0.000000
  70
    32
  0
VERTEX
  8
0
  5
9DB
 10
10.5575
 20
9.22152
 30
0.000000
  70
    32
  0
VERTEX
  8
0
  5
9DC
 10
10.5540
 20
9.23690
 30
0.000000
  70
    32
  0
VERTEX
  8
0
  5
9DD
 10
10.5504
 20
9.25229
 30
0.000000
  70
    32
  0
VERTEX
  8
0
  5
9DE
 10
10.5469
 20
9.26769
 30
0.000000
  70
    32
  0
VERTEX
  8
0
  5
9DF
 10
10.5434
 20
9.28308
 30
0.000000
  70
    32
  0
VERTEX
  8
0
  5
9E0
 10
10.5399
 20
9.29848
 30
0.000000
  70
    32
  0
VERTEX
  8
0
  5
9E1
 10
10.5364
 20
9.31389
 30
0.000000
  70
    32
  0
VERTEX
  8
0
  5
9E2
 10
10.5329
 20
9.32930
 30
0.000000
  70
    32
  0
VERTEX
  8
0
  5
9E3
 10
10.5295
 20
9.34471
 30
0.000000
  70
    32
  0
VERTEX
  8
0
  5
9E4
 10
10.5260
 20
9.36013
 30
0.000000
  70
    32
  0
VERTEX
  8
0
  5
9E5
 10
10.5226
 20
9.37555
 30
0.000000
  70
    32
  0
VERTEX
  8
0
  5
9E6
 10
10.5191
 20
9.39098
 30
0.000000
  70
    32
  0
VERTEX
  8
0
  5
9E7
 10
10.5157
 20
9.40641
 30
0.000000
  70
    32
  0
VERTEX
  8
0
  5
9E8
 10
10.5123
 20
9.42184
 30
0.000000
  70
    32
  0
VERTEX
  8
0
  5
9E9
 10
10.5089
 20
9.43727
 30
0.000000
  70
    32
  0
VERTEX
  8
0
  5
9EA
 10
10.5054
 20
9.45271
 30
0.000000
  70
    32
  0
VERTEX
  8
0
  5
9EB
 10
10.5020
 20
9.46816
 30
0.000000
  70
    32
  0
VERTEX
  8
0
  5
9EC
 10
10.4987
 20
9.48361
 30
0.000000
  70
    32
  0
VERTEX
  8
0
  5
9ED
 10
10.4953
 20
9.49906
 30
0.000000
  70
    32
  0
VERTEX
  8
0
  5
9EE
 10
10.4919
 20
9.51451
 30
0.000000
  70
    32
  0
VERTEX
  8
0
  5
9EF
 10
10.4885
 20
9.52997
 30
0.000000
  70
    32
  0
VERTEX
  8
0
  5
9F0
 10
10.4852
 20
9.54543
 30
0.000000
  70
    32
  0
VERTEX
  8
0
  5
9F1
 10
10.4818
 20
9.56090
 30
0.000000
  70
    32
  0
VERTEX
  8
0
  5
9F2
 10
10.4785
 20
9.57637
 30
0.000000
  70
    32
  0
VERTEX
  8
0
  5
9F3
 10
10.4752
 20
9.59184
 30
0.000000
  70
    32
  0
VERTEX
  8
0
  5
9F4
 10
10.4719
 20
9.60732
 30
0.000000
  70
    32
  0
VERTEX
  8
0
  5
9F5
 10
10.4685
 20
9.62280
 30
0.000000
  70
    32
  0
VERTEX
  8
0
  5
9F6
 10
10.4652
 20
9.63828
 30
0.000000
  70
    32
  0
VERTEX
  8
0
  5
9F7
 10
10.4620
 20
9.65377
 30
0.000000
  70
    32
  0
VERTEX
  8
0
  5
9F8
 10
10.4587
 20
9.66926
 30
0.000000
  70
    32
  0
VERTEX
  8
0
  5
9F9
 10
10.4554
 20
9.68476
 30
0.000000
  70
    32
  0
VERTEX
  8
0
  5
9FA
 10
10.4521
 20
9.70026
 30
0.000000
  70
    32
  0
VERTEX
  8
0
  5
9FB
 10
10.4489
 20
9.71576
 30
0.000000
  70
    32
  0
VERTEX
  8
0
  5
9FC
 10
10.4456
 20
9.73126
 30
0.000000
  70
    32
  0
VERTEX
  8
0
  5
9FD
 10
10.4424
 20
9.74677
 30
0.000000
  70
    32
  0
VERTEX
  8
0
  5
9FE
 10
10.4391
 20
9.76228
 30
0.000000
  70
    32
  0
VERTEX
  8
0
  5
9FF
 10
10.4359
 20
9.77780
 30
0.000000
  70
    32
  0
VERTEX
  8
0
  5
A00
 10
10.4327
 20
9.79332
 30
0.000000
  70
    32
  0
VERTEX
  8
0
  5
A01
 10
10.4295
 20
9.80884
 30
0.000000
  70
    32
  0
VERTEX
  8
0
  5
A02
 10
10.4263
 20
9.82436
 30
0.000000
  70
    32
  0
VERTEX
  8
0
  5
A03
 10
10.4231
 20
9.83989
 30
0.000000
  70
    32
  0
VERTEX
  8
0
  5
A04
 10
10.4199
 20
9.85542
 30
0.000000
  70
    32
  0
VERTEX
  8
0
  5
A05
 10
10.4167
 20
9.87096
 30
0.000000
  70
    32
  0
VERTEX
  8
0
  5
A06
 10
10.4136
 20
9.88650
 30
0.000000
  70
    32
  0
VERTEX
  8
0
  5
A07
 10
10.4104
 20
9.90204
 30
0.000000
  70
    32
  0
VERTEX
  8
0
  5
A08
 10
10.4073
 20
9.91758
 30
0.000000
  70
    32
  0
VERTEX
  8
0
  5
A09
 10
10.4041
 20
9.93313
 30
0.000000
  70
    32
  0
VERTEX
  8
0
  5
A0A
 10
10.4010
 20
9.94868
 30
0.000000
  70
    32
  0
VERTEX
  8
0
  5
A0B
 10
10.3979
 20
9.96424
 30
0.000000
  70
    32
  0
VERTEX
  8
0
  5
A0C
 10
10.3948
 20
9.97979
 30
0.000000
  70
    32
  0
VERTEX
  8
0
  5
A0D
 10
10.3917
 20
9.99535
 30
0.000000
  70
    32
  0
VERTEX
  8
0
  5
A0E
 10
10.3886
 20
10.0109
 30
0.000000
  70
    32
  0
VERTEX
  8
0
  5
A0F
 10
10.3855
 20
10.0265
 30
0.000000
  70
    32
  0
VERTEX
  8
0
  5
A10
 10
10.3824
 20
10.0421
 30
0.000000
  70
    32
  0
VERTEX
  8
0
  5
A11
 10
10.3793
 20
10.0576
 30
0.000000
  70
    32
  0
VERTEX
  8
0
  5
A12
 10
10.3762
 20
10.0732
 30
0.000000
  70
    32
  0
VERTEX
  8
0
  5
A13
 10
10.3732
 20
10.0888
 30
0.000000
  70
    32
  0
VERTEX
  8
0
  5
A14
 10
10.3701
 20
10.1044
 30
0.000000
  70
    32
  0
VERTEX
  8
0
  5
A15
 10
10.3671
 20
10.1199
 30
0.000000
  70
    32
  0
VERTEX
  8
0
  5
A16
 10
10.3641
 20
10.1355
 30
0.000000
  70
    32
  0
VERTEX
  8
0
  5
A17
 10
10.3610
 20
10.1511
 30
0.000000
  70
    32
  0
VERTEX
  8
0
  5
A18
 10
10.3580
 20
10.1667
 30
0.000000
  70
    32
  0
VERTEX
  8
0
  5
A19
 10
10.3550
 20
10.1823
 30
0.000000
  70
    32
  0
VERTEX
  8
0
  5
A1A
 10
10.3520
 20
10.1979
 30
0.000000
  70
    32
  0
VERTEX
  8
0
  5
A1B
 10
10.3490
 20
10.2135
 30
0.000000
  70
    32
  0
VERTEX
  8
0
  5
A1C
 10
10.3460
 20
10.2291
 30
0.000000
  70
    32
  0
VERTEX
  8
0
  5
A1D
 10
10.3430
 20
10.2447
 30
0.000000
  70
    32
  0
VERTEX
  8
0
  5
A1E
 10
10.3401
 20
10.2603
 30
0.000000
  70
    32
  0
VERTEX
  8
0
  5
A1F
 10
10.3371
 20
10.2760
 30
0.000000
  70
    32
  0
VERTEX
  8
0
  5
A20
 10
10.3341
 20
10.2916
 30
0.000000
  70
    32
  0
VERTEX
  8
0
  5
A21
 10
10.3312
 20
10.3072
 30
0.000000
  70
    32
  0
VERTEX
  8
0
  5
A22
 10
10.3283
 20
10.3228
 30
0.000000
  70
    32
  0
VERTEX
  8
0
  5
A23
 10
10.3253
 20
10.3384
 30
0.000000
  70
    32
  0
VERTEX
  8
0
  5
A24
 10
10.3224
 20
10.3541
 30
0.000000
  70
    32
  0
VERTEX
  8
0
  5
A25
 10
10.3195
 20
10.3697
 30
0.000000
  70
    32
  0
VERTEX
  8
0
  5
A26
 10
10.3166
 20
10.3853
 30
0.000000
  70
    32
  0
VERTEX
  8
0
  5
A27
 10
10.3137
 20
10.4010
 30
0.000000
  70
    32
  0
VERTEX
  8
0
  5
A28
 10
10.3108
 20
10.4166
 30
0.000000
  70
    32
  0
VERTEX
  8
0
  5
A29
 10
10.3079
 20
10.4322
 30
0.000000
  70
    32
  0
VERTEX
  8
0
  5
A2A
 10
10.3050
 20
10.4479
 30
0.000000
  70
    32
  0
VERTEX
  8
0
  5
A2B
 10
10.3021
 20
10.4635
 30
0.000000
  70
    32
  0
VERTEX
  8
0
  5
A2C
 10
10.2993
 20
10.4792
 30
0.000000
  70
    32
  0
VERTEX
  8
0
  5
A2D
 10
10.2964
 20
10.4948
 30
0.000000
  70
    32
  0
VERTEX
  8
0
  5
A2E
 10
10.2936
 20
10.5105
 30
0.000000
  70
    32
  0
VERTEX
  8
0
  5
A2F
 10
10.2907
 20
10.5261
 30
0.000000
  70
    32
  0
VERTEX
  8
0
  5
A30
 10
10.2879
 20
10.5418
 30
0.000000
  70
    32
  0
VERTEX
  8
0
  5
A31
 10
10.2851
 20
10.5575
 30
0.000000
  70
    32
  0
VERTEX
  8
0
  5
A32
 10
10.2823
 20
10.5731
 30
0.000000
  70
    32
  0
VERTEX
  8
0
  5
A33
 10
10.2795
 20
10.5888
 30
0.000000
  70
    32
  0
VERTEX
  8
0
  5
A34
 10
10.2767
 20
10.6045
 30
0.000000
  70
    32
  0
VERTEX
  8
0
  5
A35
 10
10.2739
 20
10.6201
 30
0.000000
  70
    32
  0
VERTEX
  8
0
  5
A36
 10
10.2711
 20
10.6358
 30
0.000000
  70
    32
  0
VERTEX
  8
0
  5
A37
 10
10.2683
 20
10.6515
 30
0.000000
  70
    32
  0
VERTEX
  8
0
  5
A38
 10
10.2655
 20
10.6671
 30
0.000000
  70
    32
  0
VERTEX
  8
0
  5
A39
 10
10.2627
 20
10.6828
 30
0.000000
  70
    32
  0
VERTEX
  8
0
  5
A3A
 10
10.2600
 20
10.6985
 30
0.000000
  70
    32
  0
VERTEX
  8
0
  5
A3B
 10
10.2572
 20
10.7142
 30
0.000000
  70
    32
  0
VERTEX
  8
0
  5
A3C
 10
10.2545
 20
10.7299
 30
0.000000
  70
    32
  0
VERTEX
  8
0
  5
A3D
 10
10.2518
 20
10.7456
 30
0.000000
  70
    32
  0
VERTEX
  8
0
  5
A3E
 10
10.2490
 20
10.7613
 30
0.000000
  70
    32
  0
VERTEX
  8
0
  5
A3F
 10
10.2463
 20
10.7770
 30
0.000000
  70
    32
  0
VERTEX
  8
0
  5
A40
 10
10.2436
 20
10.7927
 30
0.000000
  70
    32
  0
VERTEX
  8
0
  5
A41
 10
10.2409
 20
10.8084
 30
0.000000
  70
    32
  0
VERTEX
  8
0
  5
A42
 10
10.2382
 20
10.8241
 30
0.000000
  70
    32
  0
VERTEX
  8
0
  5
A43
 10
10.2355
 20
10.8398
 30
0.000000
  70
    32
  0
VERTEX
  8
0
  5
A44
 10
10.2328
 20
10.8555
 30
0.000000
  70
    32
  0
VERTEX
  8
0
  5
A45
 10
10.2301
 20
10.8712
 30
0.000000
  70
    32
  0
VERTEX
  8
0
  5
A46
 10
10.2275
 20
10.8869
 30
0.000000
  70
    32
  0
VERTEX
  8
0
  5
A47
 10
10.2248
 20
10.9026
 30
0.000000
  70
    32
  0
VERTEX
  8
0
  5
A48
 10
10.2221
 20
10.9183
 30
0.000000
  70
    32
  0
VERTEX
  8
0
  5
A49
 10
10.2195
 20
10.9340
 30
0.000000
  70
    32
  0
VERTEX
  8
0
  5
A4A
 10
10.2168
 20
10.9498
 30
0.000000
  70
    32
  0
VERTEX
  8
0
  5
A4B
 10
10.2142
 20
10.9655
 30
0.000000
  70
    32
  0
VERTEX
  8
0
  5
A4C
 10
10.2116
 20
10.9812
 30
0.000000
  70
    32
  0
VERTEX
  8
0
  5
A4D
 10
10.2089
 20
10.9970
 30
0.000000
  70
    32
  0
VERTEX
  8
0
  5
A4E
 10
10.2063
 20
11.0127
 30
0.000000
  70
    32
  0
VERTEX
  8
0
  5
A4F
 10
10.2037
 20
11.0284
 30
0.000000
  70
    32
  0
VERTEX
  8
0
  5
A50
 10
10.2011
 20
11.0442
 30
0.000000
  70
    32
  0
VERTEX
  8
0
  5
A51
 10
10.1985
 20
11.0599
 30
0.000000
  70
    32
  0
VERTEX
  8
0
  5
A52
 10
10.1959
 20
11.0756
 30
0.000000
  70
    32
  0
VERTEX
  8
0
  5
A53
 10
10.1934
 20
11.0914
 30
0.000000
  70
    32
  0
VERTEX
  8
0
  5
A54
 10
10.1908
 20
11.1071
 30
0.000000
  70
    32
  0
VERTEX
  8
0
  5
A55
 10
10.1882
 20
11.1229
 30
0.000000
  70
    32
  0
VERTEX
  8
0
  5
A56
 10
10.1857
 20
11.1386
 30
0.000000
  70
    32
  0
VERTEX
  8
0
  5
A57
 10
10.1831
 20
11.1544
 30
0.000000
  70
    32
  0
VERTEX
  8
0
  5
A58
 10
10.1806
 20
11.1701
 30
0.000000
  70
    32
  0
VERTEX
  8
0
  5
A59
 10
10.1780
 20
11.1859
 30
0.000000
  70
    32
  0
VERTEX
  8
0
  5
A5A
 10
10.1755
 20
11.2017
 30
0.000000
  70
    32
  0
VERTEX
  8
0
  5
A5B
 10
10.1730
 20
11.2174
 30
0.000000
  70
    32
  0
VERTEX
  8
0
  5
A5C
 10
10.1704
 20
11.2332
 30
0.000000
  70
    32
  0
VERTEX
  8
0
  5
A5D
 10
10.1679
 20
11.2489
 30
0.000000
  70
    32
  0
VERTEX
  8
0
  5
A5E
 10
10.1654
 20
11.2647
 30
0.000000
  70
    32
  0
VERTEX
  8
0
  5
A5F
 10
10.1629
 20
11.2805
 30
0.000000
  70
    32
  0
VERTEX
  8
0
  5
A60
 10
10.1604
 20
11.2963
 30
0.000000
  70
    32
  0
VERTEX
  8
0
  5
A61
 10
10.1579
 20
11.3120
 30
0.000000
  70
    32
  0
VERTEX
  8
0
  5
A62
 10
10.1555
 20
11.3278
 30
0.000000
  70
    32
  0
VERTEX
  8
0
  5
A63
 10
10.1530
 20
11.3436
 30
0.000000
  70
    32
  0
VERTEX
  8
0
  5
A64
 10
10.1505
 20
11.3594
 30
0.000000
  70
    32
  0
VERTEX
  8
0
  5
A65
 10
10.1481
 20
11.3752
 30
0.000000
  70
    32
  0
VERTEX
  8
0
  5
A66
 10
10.1456
 20
11.3909
 30
0.000000
  70
    32
  0
VERTEX
  8
0
  5
A67
 10
10.1431
 20
11.4067
 30
0.000000
  70
    32
  0
VERTEX
  8
0
  5
A68
 10
10.1407
 20
11.4225
 30
0.000000
  70
    32
  0
VERTEX
  8
0
  5
A69
 10
10.1383
 20
11.4383
 30
0.000000
  70
    32
  0
VERTEX
  8
0
  5
A6A
 10
10.1358
 20
11.4541
 30
0.000000
  70
    32
  0
VERTEX
  8
0
  5
A6B
 10
10.1334
 20
11.4699
 30
0.000000
  70
    32
  0
VERTEX
  8
0
  5
A6C
 10
10.1310
 20
11.4857
 30
0.000000
  70
    32
  0
VERTEX
  8
0
  5
A6D
 10
10.1286
 20
11.5015
 30
0.000000
  70
    32
  0
VERTEX
  8
0
  5
A6E
 10
10.1262
 20
11.5173
 30
0.000000
  70
    32
  0
VERTEX
  8
0
  5
A6F
 10
10.1238
 20
11.5331
 30
0.000000
  70
    32
  0
VERTEX
  8
0
  5
A70
 10
10.1214
 20
11.5489
 30
0.000000
  70
    32
  0
VERTEX
  8
0
  5
A71
 10
10.1190
 20
11.5647
 30
0.000000
  70
    32
  0
VERTEX
  8
0
  5
A72
 10
10.1167
 20
11.5805
 30
0.000000
  70
    32
  0
VERTEX
  8
0
  5
A73
 10
10.1143
 20
11.5963
 30
0.000000
  70
    32
  0
VERTEX
  8
0
  5
A74
 10
10.1119
 20
11.6121
 30
0.000000
  70
    32
  0
VERTEX
  8
0
  5
A75
 10
10.1096
 20
11.6280
 30
0.000000
  70
    32
  0
VERTEX
  8
0
  5
A76
 10
10.1072
 20
11.6438
 30
0.000000
  70
    32
  0
VERTEX
  8
0
  5
A77
 10
10.1049
 20
11.6596
 30
0.000000
  70
    32
  0
VERTEX
  8
0
  5
A78
 10
10.1025
 20
11.6754
 30
0.000000
  70
    32
  0
VERTEX
  8
0
  5
A79
 10
10.1002
 20
11.6912
 30
0.000000
  70
    32
  0
VERTEX
  8
0
  5
A7A
 10
10.0979
 20
11.7071
 30
0.000000
  70
    32
  0
VERTEX
  8
0
  5
A7B
 10
10.0956
 20
11.7229
 30
0.000000
  70
    32
  0
VERTEX
  8
0
  5
A7C
 10
10.0932
 20
11.7387
 30
0.000000
  70
    32
  0
VERTEX
  8
0
  5
A7D
 10
10.0909
 20
11.7546
 30
0.000000
  70
    32
  0
VERTEX
  8
0
  5
A7E
 10
10.0886
 20
11.7704
 30
0.000000
  70
    32
  0
VERTEX
  8
0
  5
A7F
 10
10.0863
 20
11.7862
 30
0.000000
  70
    32
  0
VERTEX
  8
0
  5
A80
 10
10.0841
 20
11.8021
 30
0.000000
  70
    32
  0
VERTEX
  8
0
  5
A81
 10
10.0818
 20
11.8179
 30
0.000000
  70
    32
  0
VERTEX
  8
0
  5
A82
 10
10.0795
 20
11.8337
 30
0.000000
  70
    32
  0
VERTEX
  8
0
  5
A83
 10
10.0772
 20
11.8496
 30
0.000000
  70
    32
  0
VERTEX
  8
0
  5
A84
 10
10.0750
 20
11.8654
 30
0.000000
  70
    32
  0
VERTEX
  8
0
  5
A85
 10
10.0727
 20
11.8813
 30
0.000000
  70
    32
  0
VERTEX
  8
0
  5
A86
 10
10.0705
 20
11.8971
 30
0.000000
  70
    32
  0
VERTEX
  8
0
  5
A87
 10
10.0682
 20
11.9129
 30
0.000000
  70
    32
  0
VERTEX
  8
0
  5
A88
 10
10.0660
 20
11.9288
 30
0.000000
  70
    32
  0
VERTEX
  8
0
  5
A89
 10
10.0637
 20
11.9446
 30
0.000000
  70
    32
  0
VERTEX
  8
0
  5
A8A
 10
10.0615
 20
11.9605
 30
0.000000
  70
    32
  0
VERTEX
  8
0
  5
A8B
 10
10.0593
 20
11.9763
 30
0.000000
  70
    32
  0
VERTEX
  8
0
  5
A8C
 10
10.0571
 20
11.9922
 30
0.000000
  70
    32
  0
VERTEX
  8
0
  5
A8D
 10
10.0549
 20
12.0081
 30
0.000000
  70
    32
  0
VERTEX
  8
0
  5
A8E
 10
10.0527
 20
12.0239
 30
0.000000
  70
    32
  0
VERTEX
  8
0
  5
A8F
 10
10.0505
 20
12.0398
 30
0.000000
  70
    32
  0
VERTEX
  8
0
  5
A90
 10
10.0483
 20
12.0556
 30
0.000000
  70
    32
  0
VERTEX
  8
0
  5
A91
 10
10.0461
 20
12.0715
 30
0.000000
  70
    32
  0
VERTEX
  8
0
  5
A92
 10
10.0439
 20
12.0874
 30
0.000000
  70
    32
  0
VERTEX
  8
0
  5
A93
 10
10.0417
 20
12.1032
 30
0.000000
  70
    32
  0
VERTEX
  8
0
  5
A94
 10
10.0396
 20
12.1191
 30
0.000000
  70
    32
  0
VERTEX
  8
0
  5
A95
 10
10.0374
 20
12.1350
 30
0.000000
  70
    32
  0
VERTEX
  8
0
  5
A96
 10
10.0352
 20
12.1508
 30
0.000000
  70
    32
  0
VERTEX
  8
0
  5
A97
 10
10.0331
 20
12.1667
 30
0.000000
  70
    32
  0
VERTEX
  8
0
  5
A98
 10
10.0309
 20
12.1826
 30
0.000000
  70
    32
  0
VERTEX
  8
0
  5
A99
 10
10.0288
 20
12.1985
 30
0.000000
  70
    32
  0
VERTEX
  8
0
  5
A9A
 10
10.0267
 20
12.2143
 30
0.000000
  70
    32
  0
VERTEX
  8
0
  5
A9B
 10
10.0245
 20
12.2302
 30
0.000000
  70
    32
  0
VERTEX
  8
0
  5
A9C
 10
10.0224
 20
12.2461
 30
0.000000
  70
    32
  0
VERTEX
  8
0
  5
A9D
 10
10.0203
 20
12.2620
 30
0.000000
  70
    32
  0
VERTEX
  8
0
  5
A9E
 10
10.0182
 20
12.2779
 30
0.000000
  70
    32
  0
VERTEX
  8
0
  5
A9F
 10
10.0161
 20
12.2937
 30
0.000000
  70
    32
  0
VERTEX
  8
0
  5
AA0
 10
10.0140
 20
12.3096
 30
0.000000
  70
    32
  0
VERTEX
  8
0
  5
AA1
 10
10.0119
 20
12.3255
 30
0.000000
  70
    32
  0
VERTEX
  8
0
  5
AA2
 10
10.0098
 20
12.3414
 30
0.000000
  70
    32
  0
VERTEX
  8
0
  5
AA3
 10
10.0077
 20
12.3573
 30
0.000000
  70
    32
  0
VERTEX
  8
0
  5
AA4
 10
10.0056
 20
12.3732
 30
0.000000
  70
    32
  0
VERTEX
  8
0
  5
AA5
 10
10.0036
 20
12.3891
 30
0.000000
  70
    32
  0
VERTEX
  8
0
  5
AA6
 10
10.0015
 20
12.4050
 30
0.000000
  70
    32
  0
VERTEX
  8
0
  5
AA7
 10
9.99945
 20
12.4209
 30
0.000000
  70
    32
  0
VERTEX
  8
0
  5
AA8
 10
9.99740
 20
12.4368
 30
0.000000
  70
    32
  0
VERTEX
  8
0
  5
AA9
 10
9.99535
 20
12.4527
 30
0.000000
  70
    32
  0
VERTEX
  8
0
  5
AAA
 10
9.99331
 20
12.4686
 30
0.000000
  70
    32
  0
VERTEX
  8
0
  5
AAB
 10
9.99127
 20
12.4845
 30
0.000000
  70
    32
  0
VERTEX
  8
0
  5
AAC
 10
9.98924
 20
12.5004
 30
0.000000
  70
    32
  0
VERTEX
  8
0
  5
AAD
 10
9.98721
 20
12.5163
 30
0.000000
  70
    32
  0
VERTEX
  8
0
  5
AAE
 10
9.98519
 20
12.5322
 30
0.000000
  70
    32
  0
VERTEX
  8
0
  5
AAF
 10
9.98318
 20
12.5481
 30
0.000000
  70
    32
  0
VERTEX
  8
0
  5
AB0
 10
9.98117
 20
12.5640
 30
0.000000
  70
    32
  0
VERTEX
  8
0
  5
AB1
 10
9.97917
 20
12.5799
 30
0.000000
  70
    32
  0
VERTEX
  8
0
  5
AB2
 10
9.97717
 20
12.5958
 30
0.000000
  70
    32
  0
VERTEX
  8
0
  5
AB3
 10
9.97518
 20
12.6118
 30
0.000000
  70
    32
  0
VERTEX
  8
0
  5
AB4
 10
9.97319
 20
12.6277
 30
0.000000
  70
    32
  0
VERTEX
  8
0
  5
AB5
 10
9.97121
 20
12.6436
 30
0.000000
  70
    32
  0
VERTEX
  8
0
  5
AB6
 10
9.96923
 20
12.6595
 30
0.000000
  70
    32
  0
VERTEX
  8
0
  5
AB7
 10
9.96726
 20
12.6754
 30
0.000000
  70
    32
  0
VERTEX
  8
0
  5
AB8
 10
9.96530
 20
12.6914
 30
0.000000
  70
    32
  0
VERTEX
  8
0
  5
AB9
 10
9.96334
 20
12.7073
 30
0.000000
  70
    32
  0
VERTEX
  8
0
  5
ABA
 10
9.96138
 20
12.7232
 30
0.000000
  70
    32
  0
VERTEX
  8
0
  5
ABB
 10
9.95944
 20
12.7391
 30
0.000000
  70
    32
  0
VERTEX
  8
0
  5
ABC
 10
9.95749
 20
12.7551
 30
0.000000
  70
    32
  0
VERTEX
  8
0
  5
ABD
 10
9.95556
 20
12.7710
 30
0.000000
  70
    32
  0
VERTEX
  8
0
  5
ABE
 10
9.95362
 20
12.7869
 30
0.000000
  70
    32
  0
VERTEX
  8
0
  5
ABF
 10
9.95170
 20
12.8029
 30
0.000000
  70
    32
  0
VERTEX
  8
0
  5
AC0
 10
9.94977
 20
12.8188
 30
0.000000
  70
    32
  0
VERTEX
  8
0
  5
AC1
 10
9.94786
 20
12.8347
 30
0.000000
  70
    32
  0
VERTEX
  8
0
  5
AC2
 10
9.94595
 20
12.8507
 30
0.000000
  70
    32
  0
VERTEX
  8
0
  5
AC3
 10
9.94404
 20
12.8666
 30
0.000000
  70
    32
  0
VERTEX
  8
0
  5
AC4
 10
9.94214
 20
12.8825
 30
0.000000
  70
    32
  0
VERTEX
  8
0
  5
AC5
 10
9.94025
 20
12.8985
 30
0.000000
  70
    32
  0
VERTEX
  8
0
  5
AC6
 10
9.93836
 20
12.9144
 30
0.000000
  70
    32
  0
VERTEX
  8
0
  5
AC7
 10
9.93647
 20
12.9304
 30
0.000000
  70
    32
  0
VERTEX
  8
0
  5
AC8
 10
9.93459
 20
12.9463
 30
0.000000
  70
    32
  0
VERTEX
  8
0
  5
AC9
 10
9.93272
 20
12.9623
 30
0.000000
  70
    32
  0
VERTEX
  8
0
  5
ACA
 10
9.93085
 20
12.9782
 30
0.000000
  70
    32
  0
VERTEX
  8
0
  5
ACB
 10
9.92898
 20
12.9941
 30
0.000000
  70
    32
  0
VERTEX
  8
0
  5
ACC
 10
9.92713
 20
13.0101
 30
0.000000
  70
    32
  0
VERTEX
  8
0
  5
ACD
 10
9.92527
 20
13.0261
 30
0.000000
  70
    32
  0
VERTEX
  8
0
  5
ACE
 10
9.92342
 20
13.0420
 30
0.000000
  70
    32
  0
VERTEX
  8
0
  5
ACF
 10
9.92158
 20
13.0580
 30
0.000000
  70
    32
  0
VERTEX
  8
0
  5
AD0
 10
9.91974
 20
13.0739
 30
0.000000
  70
    32
  0
VERTEX
  8
0
  5
AD1
 10
9.91791
 20
13.0899
 30
0.000000
  70
    32
  0
VERTEX
  8
0
  5
AD2
 10
9.91608
 20
13.1058
 30
0.000000
  70
    32
  0
VERTEX
  8
0
  5
AD3
 10
9.91426
 20
13.1218
 30
0.000000
  70
    32
  0
VERTEX
  8
0
  5
AD4
 10
9.91244
 20
13.1377
 30
0.000000
  70
    32
  0
VERTEX
  8
0
  5
AD5
 10
9.91063
 20
13.1537
 30
0.000000
  70
    32
  0
VERTEX
  8
0
  5
AD6
 10
9.90882
 20
13.1697
 30
0.000000
  70
    32
  0
VERTEX
  8
0
  5
AD7
 10
9.90702
 20
13.1856
 30
0.000000
  70
    32
  0
VERTEX
  8
0
  5
AD8
 10
9.90522
 20
13.2016
 30
0.000000
  70
    32
  0
VERTEX
  8
0
  5
AD9
 10
9.90343
 20
13.2176
 30
0.000000
  70
    32
  0
VERTEX
  8
0
  5
ADA
 10
9.90164
 20
13.2335
 30
0.000000
  70
    32
  0
VERTEX
  8
0
  5
ADB
 10
9.89986
 20
13.2495
 30
0.000000
  70
    32
  0
VERTEX
  8
0
  5
ADC
 10
9.89808
 20
13.2655
 30
0.000000
  70
    32
  0
VERTEX
  8
0
  5
ADD
 10
9.89631
 20
13.2815
 30
0.000000
  70
    32
  0
VERTEX
  8
0
  5
ADE
 10
9.89454
 20
13.2974
 30
0.000000
  70
    32
  0
VERTEX
  8
0
  5
ADF
 10
9.89278
 20
13.3134
 30
0.000000
  70
    32
  0
VERTEX
  8
0
  5
AE0
 10
9.89102
 20
13.3294
 30
0.000000
  70
    32
  0
VERTEX
  8
0
  5
AE1
 10
9.88927
 20
13.3454
 30
0.000000
  70
    32
  0
VERTEX
  8
0
  5
AE2
 10
9.88752
 20
13.3613
 30
0.000000
  70
    32
  0
VERTEX
  8
0
  5
AE3
 10
9.88578
 20
13.3773
 30
0.000000
  70
    32
  0
VERTEX
  8
0
  5
AE4
 10
9.88404
 20
13.3933
 30
0.000000
  70
    32
  0
VERTEX
  8
0
  5
AE5
 10
9.88231
 20
13.4093
 30
0.000000
  70
    32
  0
VERTEX
  8
0
  5
AE6
 10
9.88058
 20
13.4253
 30
0.000000
  70
    32
  0
VERTEX
  8
0
  5
AE7
 10
9.87886
 20
13.4412
 30
0.000000
  70
    32
  0
VERTEX
  8
0
  5
AE8
 10
9.87714
 20
13.4572
 30
0.000000
  70
    32
  0
VERTEX
  8
0
  5
AE9
 10
9.87542
 20
13.4732
 30
0.000000
  70
    32
  0
VERTEX
  8
0
  5
AEA
 10
9.87372
 20
13.4892
 30
0.000000
  70
    32
  0
VERTEX
  8
0
  5
AEB
 10
9.87201
 20
13.5052
 30
0.000000
  70
    32
  0
VERTEX
  8
0
  5
AEC
 10
9.87031
 20
13.5212
 30
0.000000
  70
    32
  0
VERTEX
  8
0
  5
AED
 10
9.86862
 20
13.5372
 30
0.000000
  70
    32
  0
VERTEX
  8
0
  5
AEE
 10
9.86693
 20
13.5532
 30
0.000000
  70
    32
  0
VERTEX
  8
0
  5
AEF
 10
9.86524
 20
13.5692
 30
0.000000
  70
    32
  0
VERTEX
  8
0
  5
AF0
 10
9.86356
 20
13.5852
 30
0.000000
  70
    32
  0
VERTEX
  8
0
  5
AF1
 10
9.86189
 20
13.6011
 30
0.000000
  70
    32
  0
VERTEX
  8
0
  5
AF2
 10
9.86022
 20
13.6171
 30
0.000000
  70
    32
  0
VERTEX
  8
0
  5
AF3
 10
9.85855
 20
13.6331
 30
0.000000
  70
    32
  0
VERTEX
  8
0
  5
AF4
 10
9.85689
 20
13.6491
 30
0.000000
  70
    32
  0
VERTEX
  8
0
  5
AF5
 10
9.85523
 20
13.6651
 30
0.000000
  70
    32
  0
VERTEX
  8
0
  5
AF6
 10
9.85358
 20
13.6811
 30
0.000000
  70
    32
  0
VERTEX
  8
0
  5
AF7
 10
9.85193
 20
13.6971
 30
0.000000
  70
    32
  0
VERTEX
  8
0
  5
AF8
 10
9.85029
 20
13.7131
 30
0.000000
  70
    32
  0
VERTEX
  8
0
  5
AF9
 10
9.84865
 20
13.7292
 30
0.000000
  70
    32
  0
VERTEX
  8
0
  5
AFA
 10
9.84702
 20
13.7452
 30
0.000000
  70
    32
  0
VERTEX
  8
0
  5
AFB
 10
9.84539
 20
13.7612
 30
0.000000
  70
    32
  0
VERTEX
  8
0
  5
AFC
 10
9.84377
 20
13.7772
 30
0.000000
  70
    32
  0
VERTEX
  8
0
  5
AFD
 10
9.84215
 20
13.7932
 30
0.000000
  70
    32
  0
VERTEX
  8
0
  5
AFE
 10
9.84053
 20
13.8092
 30
0.000000
  70
    32
  0
VERTEX
  8
0
  5
AFF
 10
9.83892
 20
13.8252
 30
0.000000
  70
    32
  0
VERTEX
  8
0
  5
B00
 10
9.83732
 20
13.8412
 30
0.000000
  70
    32
  0
VERTEX
  8
0
  5
B01
 10
9.83572
 20
13.8572
 30
0.000000
  70
    32
  0
VERTEX
  8
0
  5
B02
 10
9.83412
 20
13.8732
 30
0.000000
  70
    32
  0
VERTEX
  8
0
  5
B03
 10
9.83253
 20
13.8892
 30
0.000000
  70
    32
  0
VERTEX
  8
0
  5
B04
 10
9.83094
 20
13.9053
 30
0.000000
  70
    32
  0
VERTEX
  8
0
  5
B05
 10
9.82936
 20
13.9213
 30
0.000000
  70
    32
  0
VERTEX
  8
0
  5
B06
 10
9.82778
 20
13.9373
 30
0.000000
  70
    32
  0
VERTEX
  8
0
  5
B07
 10
9.82621
 20
13.9533
 30
0.000000
  70
    32
  0
VERTEX
  8
0
  5
B08
 10
9.82464
 20
13.9693
 30
0.000000
  70
    32
  0
VERTEX
  8
0
  5
B09
 10
9.82308
 20
13.9854
 30
0.000000
  70
    32
  0
VERTEX
  8
0
  5
B0A
 10
9.82152
 20
14.0014
 30
0.000000
  70
    32
  0
VERTEX
  8
0
  5
B0B
 10
9.81996
 20
14.0174
 30
0.000000
  70
    32
  0
VERTEX
  8
0
  5
B0C
 10
9.81841
 20
14.0334
 30
0.000000
  70
    32
  0
VERTEX
  8
0
  5
B0D
 10
9.81687
 20
14.0494
 30
0.000000
  70
    32
  0
VERTEX
  8
0
  5
B0E
 10
9.81533
 20
14.0655
 30
0.000000
  70
    32
  0
VERTEX
  8
0
  5
B0F
 10
9.81379
 20
14.0815
 30
0.000000
  70
    32
  0
VERTEX
  8
0
  5
B10
 10
9.81226
 20
14.0975
 30
0.000000
  70
    32
  0
VERTEX
  8
0
  5
B11
 10
9.81073
 20
14.1135
 30
0.000000
  70
    32
  0
VERTEX
  8
0
  5
B12
 10
9.80921
 20
14.1296
 30
0.000000
  70
    32
  0
VERTEX
  8
0
  5
B13
 10
9.80769
 20
14.1456
 30
0.000000
  70
    32
  0
VERTEX
  8
0
  5
B14
 10
9.80617
 20
14.1616
 30
0.000000
  70
    32
  0
VERTEX
  8
0
  5
B15
 10
9.80466
 20
14.1777
 30
0.000000
  70
    32
  0
VERTEX
  8
0
  5
B16
 10
9.80316
 20
14.1937
 30
0.000000
  70
    32
  0
VERTEX
  8
0
  5
B17
 10
9.80166
 20
14.2097
 30
0.000000
  70
    32
  0
VERTEX
  8
0
  5
B18
 10
9.80016
 20
14.2258
 30
0.000000
  70
    32
  0
VERTEX
  8
0
  5
B19
 10
9.79867
 20
14.2418
 30
0.000000
  70
    32
  0
VERTEX
  8
0
  5
B1A
 10
9.79718
 20
14.2578
 30
0.000000
  70
    32
  0
VERTEX
  8
0
  5
B1B
 10
9.79570
 20
14.2739
 30
0.000000
  70
    32
  0
VERTEX
  8
0
  5
B1C
 10
9.79422
 20
14.2899
 30
0.000000
  70
    32
  0
VERTEX
  8
0
  5
B1D
 10
9.79275
 20
14.3060
 30
0.000000
  70
    32
  0
VERTEX
  8
0
  5
B1E
 10
9.79128
 20
14.3220
 30
0.000000
  70
    32
  0
VERTEX
  8
0
  5
B1F
 10
9.78981
 20
14.3380
 30
0.000000
  70
    32
  0
VERTEX
  8
0
  5
B20
 10
9.78835
 20
14.3541
 30
0.000000
  70
    32
  0
VERTEX
  8
0
  5
B21
 10
9.78689
 20
14.3701
 30
0.000000
  70
    32
  0
VERTEX
  8
0
  5
B22
 10
9.78544
 20
14.3862
 30
0.000000
  70
    32
  0
VERTEX
  8
0
  5
B23
 10
9.78399
 20
14.4022
 30
0.000000
  70
    32
  0
VERTEX
  8
0
  5
B24
 10
9.78255
 20
14.4183
 30
0.000000
  70
    32
  0
VERTEX
  8
0
  5
B25
 10
9.78111
 20
14.4343
 30
0.000000
  70
    32
  0
VERTEX
  8
0
  5
B26
 10
9.77967
 20
14.4503
 30
0.000000
  70
    32
  0
VERTEX
  8
0
  5
B27
 10
9.77824
 20
14.4664
 30
0.000000
  70
    32
  0
VERTEX
  8
0
  5
B28
 10
9.77681
 20
14.4824
 30
0.000000
  70
    32
  0
VERTEX
  8
0
  5
B29
 10
9.77539
 20
14.4985
 30
0.000000
  70
    32
  0
VERTEX
  8
0
  5
B2A
 10
9.77397
 20
14.5145
 30
0.000000
  70
    32
  0
VERTEX
  8
0
  5
B2B
 10
9.77256
 20
14.5306
 30
0.000000
  70
    32
  0
VERTEX
  8
0
  5
B2C
 10
9.77115
 20
14.5466
 30
0.000000
  70
    32
  0
VERTEX
  8
0
  5
B2D
 10
9.76974
 20
14.5627
 30
0.000000
  70
    32
  0
VERTEX
  8
0
  5
B2E
 10
9.76834
 20
14.5788
 30
0.000000
  70
    32
  0
VERTEX
  8
0
  5
B2F
 10
9.76695
 20
14.5948
 30
0.000000
  70
    32
  0
VERTEX
  8
0
  5
B30
 10
9.76555
 20
14.6109
 30
0.000000
  70
    32
  0
VERTEX
  8
0
  5
B31
 10
9.76417
 20
14.6269
 30
0.000000
  70
    32
  0
VERTEX
  8
0
  5
B32
 10
9.76278
 20
14.6430
 30
0.000000
  70
    32
  0
VERTEX
  8
0
  5
B33
 10
9.76140
 20
14.6590
 30
0.000000
  70
    32
  0
VERTEX
  8
0
  5
B34
 10
9.76003
 20
14.6751
 30
0.000000
  70
    32
  0
VERTEX
  8
0
  5
B35
 10
9.75866
 20
14.6912
 30
0.000000
  70
    32
  0
VERTEX
  8
0
  5
B36
 10
9.75729
 20
14.7072
 30
0.000000
  70
    32
  0
VERTEX
  8
0
  5
B37
 10
9.75592
 20
14.7233
 30
0.000000
  70
    32
  0
VERTEX
  8
0
  5
B38
 10
9.75457
 20
14.7393
 30
0.000000
  70
    32
  0
VERTEX
  8
0
  5
B39
 10
9.75321
 20
14.7554
 30
0.000000
  70
    32
  0
VERTEX
  8
0
  5
B3A
 10
9.75186
 20
14.7715
 30
0.000000
  70
    32
  0
VERTEX
  8
0
  5
B3B
 10
9.75051
 20
14.7875
 30
0.000000
  70
    32
  0
VERTEX
  8
0
  5
B3C
 10
9.74917
 20
14.8036
 30
0.000000
  70
    32
  0
VERTEX
  8
0
  5
B3D
 10
9.74783
 20
14.8197
 30
0.000000
  70
    32
  0
VERTEX
  8
0
  5
B3E
 10
9.74650
 20
14.8357
 30
0.000000
  70
    32
  0
VERTEX
  8
0
  5
B3F
 10
9.74517
 20
14.8518
 30
0.000000
  70
    32
  0
VERTEX
  8
0
  5
B40
 10
9.74384
 20
14.8679
 30
0.000000
  70
    32
  0
VERTEX
  8
0
  5
B41
 10
9.74252
 20
14.8840
 30
0.000000
  70
    32
  0
VERTEX
  8
0
  5
B42
 10
9.74120
 20
14.9000
 30
0.000000
  70
    32
  0
VERTEX
  8
0
  5
B43
 10
9.73989
 20
14.9161
 30
0.000000
  70
    32
  0
VERTEX
  8
0
  5
B44
 10
9.73858
 20
14.9322
 30
0.000000
  70
    32
  0
VERTEX
  8
0
  5
B45
 10
9.73728
 20
14.9482
 30
0.000000
  70
    32
  0
VERTEX
  8
0
  5
B46
 10
9.73597
 20
14.9643
 30
0.000000
  70
    32
  0
VERTEX
  8
0
  5
B47
 10
9.73468
 20
14.9804
 30
0.000000
  70
    32
  0
VERTEX
  8
0
  5
B48
 10
9.73338
 20
14.9965
 30
0.000000
  70
    32
  0
VERTEX
  8
0
  5
B49
 10
9.73210
 20
15.0125
 30
0.000000
  70
    32
  0
VERTEX
  8
0
  5
B4A
 10
9.73081
 20
15.0286
 30
0.000000
  70
    32
  0
VERTEX
  8
0
  5
B4B
 10
9.72953
 20
15.0447
 30
0.000000
  70
    32
  0
VERTEX
  8
0
  5
B4C
 10
9.72825
 20
15.0608
 30
0.000000
  70
    32
  0
VERTEX
  8
0
  5
B4D
 10
9.72698
 20
15.0769
 30
0.000000
  70
    32
  0
VERTEX
  8
0
  5
B4E
 10
9.72571
 20
15.0929
 30
0.000000
  70
    32
  0
VERTEX
  8
0
  5
B4F
 10
9.72444
 20
15.1090
 30
0.000000
  70
    32
  0
VERTEX
  8
0
  5
B50
 10
9.72318
 20
15.1251
 30
0.000000
  70
    32
  0
VERTEX
  8
0
  5
B51
 10
9.72193
 20
15.1412
 30
0.000000
  70
    32
  0
VERTEX
  8
0
  5
B52
 10
9.72067
 20
15.1573
 30
0.000000
  70
    32
  0
VERTEX
  8
0
  5
B53
 10
9.71942
 20
15.1734
 30
0.000000
  70
    32
  0
VERTEX
  8
0
  5
B54
 10
9.71818
 20
15.1894
 30
0.000000
  70
    32
  0
VERTEX
  8
0
  5
B55
 10
9.71694
 20
15.2055
 30
0.000000
  70
    32
  0
VERTEX
  8
0
  5
B56
 10
9.71570
 20
15.2216
 30
0.000000
  70
    32
  0
VERTEX
  8
0
  5
B57
 10
9.71447
 20
15.2377
 30
0.000000
  70
    32
  0
VERTEX
  8
0
  5
B58
 10
9.71324
 20
15.2538
 30
0.000000
  70
    32
  0
VERTEX
  8
0
  5
B59
 10
9.71201
 20
15.2699
 30
0.000000
  70
    32
  0
VERTEX
  8
0
  5
B5A
 10
9.71079
 20
15.2860
 30
0.000000
  70
    32
  0
VERTEX
  8
0
  5
B5B
 10
9.70957
 20
15.3021
 30
0.000000
  70
    32
  0
VERTEX
  8
0
  5
B5C
 10
9.70836
 20
15.3182
 30
0.000000
  70
    32
  0
VERTEX
  8
0
  5
B5D
 10
9.70715
 20
15.3342
 30
0.000000
  70
    32
  0
VERTEX
  8
0
  5
B5E
 10
9.70594
 20
15.3503
 30
0.000000
  70
    32
  0
VERTEX
  8
0
  5
B5F
 10
9.70474
 20
15.3664
 30
0.000000
  70
    32
  0
VERTEX
  8
0
  5
B60
 10
9.70354
 20
15.3825
 30
0.000000
  70
    32
  0
VERTEX
  8
0
  5
B61
 10
9.70234
 20
15.3986
 30
0.000000
  70
    32
  0
VERTEX
  8
0
  5
B62
 10
9.70115
 20
15.4147
 30
0.000000
  70
    32
  0
VERTEX
  8
0
  5
B63
 10
9.69997
 20
15.4308
 30
0.000000
  70
    32
  0
VERTEX
  8
0
  5
B64
 10
9.69878
 20
15.4469
 30
0.000000
  70
    32
  0
VERTEX
  8
0
  5
B65
 10
9.69760
 20
15.4630
 30
0.000000
  70
    32
  0
VERTEX
  8
0
  5
B66
 10
9.69643
 20
15.4791
 30
0.000000
  70
    32
  0
VERTEX
  8
0
  5
B67
 10
9.69526
 20
15.4952
 30
0.000000
  70
    32
  0
VERTEX
  8
0
  5
B68
 10
9.69409
 20
15.5113
 30
0.000000
  70
    32
  0
VERTEX
  8
0
  5
B69
 10
9.69292
 20
15.5274
 30
0.000000
  70
    32
  0
VERTEX
  8
0
  5
B6A
 10
9.69176
 20
15.5435
 30
0.000000
  70
    32
  0
VERTEX
  8
0
  5
B6B
 10
9.69061
 20
15.5596
 30
0.000000
  70
    32
  0
VERTEX
  8
0
  5
B6C
 10
9.68945
 20
15.5757
 30
0.000000
  70
    32
  0
VERTEX
  8
0
  5
B6D
 10
9.68830
 20
15.5918
 30
0.000000
  70
    32
  0
VERTEX
  8
0
  5
B6E
 10
9.68716
 20
15.6079
 30
0.000000
  70
    32
  0
VERTEX
  8
0
  5
B6F
 10
9.68602
 20
15.6240
 30
0.000000
  70
    32
  0
VERTEX
  8
0
  5
B70
 10
9.68488
 20
15.6401
 30
0.000000
  70
    32
  0
VERTEX
  8
0
  5
B71
 10
9.68374
 20
15.6562
 30
0.000000
  70
    32
  0
VERTEX
  8
0
  5
B72
 10
9.68261
 20
15.6724
 30
0.000000
  70
    32
  0
VERTEX
  8
0
  5
B73
 10
9.68149
 20
15.6885
 30
0.000000
  70
    32
  0
VERTEX
  8
0
  5
B74
 10
9.68036
 20
15.7046
 30
0.000000
  70
    32
  0
VERTEX
  8
0
  5
B75
 10
9.67924
 20
15.7207
 30
0.000000
  70
    32
  0
VERTEX
  8
0
  5
B76
 10
9.67813
 20
15.7368
 30
0.000000
  70
    32
  0
VERTEX
  8
0
  5
B77
 10
9.67702
 20
15.7529
 30
0.000000
  70
    32
  0
VERTEX
  8
0
  5
B78
 10
9.67591
 20
15.7690
 30
0.000000
  70
    32
  0
VERTEX
  8
0
  5
B79
 10
9.67480
 20
15.7851
 30
0.000000
  70
    32
  0
VERTEX
  8
0
  5
B7A
 10
9.67370
 20
15.8012
 30
0.000000
  70
    32
  0
VERTEX
  8
0
  5
B7B
 10
9.67260
 20
15.8173
 30
0.000000
  70
    32
  0
VERTEX
  8
0
  5
B7C
 10
9.67151
 20
15.8335
 30
0.000000
  70
    32
  0
VERTEX
  8
0
  5
B7D
 10
9.67042
 20
15.8496
 30
0.000000
  70
    32
  0
VERTEX
  8
0
  5
B7E
 10
9.66933
 20
15.8657
 30
0.000000
  70
    32
  0
VERTEX
  8
0
  5
B7F
 10
9.66825
 20
15.8818
 30
0.000000
  70
    32
  0
VERTEX
  8
0
  5
B80
 10
9.66717
 20
15.8979
 30
0.000000
  70
    32
  0
VERTEX
  8
0
  5
B81
 10
9.66609
 20
15.9140
 30
0.000000
  70
    32
  0
VERTEX
  8
0
  5
B82
 10
9.66502
 20
15.9302
 30
0.000000
  70
    32
  0
VERTEX
  8
0
  5
B83
 10
9.66395
 20
15.9463
 30
0.000000
  70
    32
  0
VERTEX
  8
0
  5
B84
 10
9.66289
 20
15.9624
 30
0.000000
  70
    32
  0
VERTEX
  8
0
  5
B85
 10
9.66182
 20
15.9785
 30
0.000000
  70
    32
  0
VERTEX
  8
0
  5
B86
 10
9.66077
 20
15.9946
 30
0.000000
  70
    32
  0
VERTEX
  8
0
  5
B87
 10
9.65971
 20
16.0107
 30
0.000000
  70
    32
  0
VERTEX
  8
0
  5
B88
 10
9.65866
 20
16.0269
 30
0.000000
  70
    32
  0
VERTEX
  8
0
  5
B89
 10
9.65761
 20
16.0430
 30
0.000000
  70
    32
  0
VERTEX
  8
0
  5
B8A
 10
9.65657
 20
16.0591
 30
0.000000
  70
    32
  0
VERTEX
  8
0
  5
B8B
 10
9.65553
 20
16.0752
 30
0.000000
  70
    32
  0
VERTEX
  8
0
  5
B8C
 10
9.65449
 20
16.0914
 30
0.000000
  70
    32
  0
VERTEX
  8
0
  5
B8D
 10
9.65346
 20
16.1075
 30
0.000000
  70
    32
  0
VERTEX
  8
0
  5
B8E
 10
9.65242
 20
16.1236
 30
0.000000
  70
    32
  0
VERTEX
  8
0
  5
B8F
 10
9.65140
 20
16.1397
 30
0.000000
  70
    32
  0
VERTEX
  8
0
  5
B90
 10
9.65037
 20
16.1559
 30
0.000000
  70
    32
  0
VERTEX
  8
0
  5
B91
 10
9.64935
 20
16.1720
 30
0.000000
  70
    32
  0
VERTEX
  8
0
  5
B92
 10
9.64834
 20
16.1881
 30
0.000000
  70
    32
  0
VERTEX
  8
0
  5
B93
 10
9.64732
 20
16.2042
 30
0.000000
  70
    32
  0
VERTEX
  8
0
  5
B94
 10
9.64632
 20
16.2204
 30
0.000000
  70
    32
  0
VERTEX
  8
0
  5
B95
 10
9.64531
 20
16.2365
 30
0.000000
  70
    32
  0
VERTEX
  8
0
  5
B96
 10
9.64431
 20
16.2526
 30
0.000000
  70
    32
  0
VERTEX
  8
0
  5
B97
 10
9.64331
 20
16.2688
 30
0.000000
  70
    32
  0
VERTEX
  8
0
  5
B98
 10
9.64231
 20
16.2849
 30
0.000000
  70
    32
  0
VERTEX
  8
0
  5
B99
 10
9.64132
 20
16.3010
 30
0.000000
  70
    32
  0
VERTEX
  8
0
  5
B9A
 10
9.64033
 20
16.3171
 30
0.000000
  70
    32
  0
VERTEX
  8
0
  5
B9B
 10
9.63934
 20
16.3333
 30
0.000000
  70
    32
  0
VERTEX
  8
0
  5
B9C
 10
9.63836
 20
16.3494
 30
0.000000
  70
    32
  0
VERTEX
  8
0
  5
B9D
 10
9.63738
 20
16.3655
 30
0.000000
  70
    32
  0
VERTEX
  8
0
  5
B9E
 10
9.63641
 20
16.3817
 30
0.000000
  70
    32
  0
VERTEX
  8
0
  5
B9F
 10
9.63544
 20
16.3978
 30
0.000000
  70
    32
  0
VERTEX
  8
0
  5
BA0
 10
9.63447
 20
16.4140
 30
0.000000
  70
    32
  0
VERTEX
  8
0
  5
BA1
 10
9.63350
 20
16.4301
 30
0.000000
  70
    32
  0
VERTEX
  8
0
  5
BA2
 10
9.63254
 20
16.4462
 30
0.000000
  70
    32
  0
VERTEX
  8
0
  5
BA3
 10
9.63158
 20
16.4624
 30
0.000000
  70
    32
  0
VERTEX
  8
0
  5
BA4
 10
9.63063
 20
16.4785
 30
0.000000
  70
    32
  0
VERTEX
  8
0
  5
BA5
 10
9.62968
 20
16.4946
 30
0.000000
  70
    32
  0
VERTEX
  8
0
  5
BA6
 10
9.62873
 20
16.5108
 30
0.000000
  70
    32
  0
VERTEX
  8
0
  5
BA7
 10
9.62778
 20
16.5269
 30
0.000000
  70
    32
  0
VERTEX
  8
0
  5
BA8
 10
9.62684
 20
16.5431
 30
0.000000
  70
    32
  0
VERTEX
  8
0
  5
BA9
 10
9.62590
 20
16.5592
 30
0.000000
  70
    32
  0
VERTEX
  8
0
  5
BAA
 10
9.62497
 20
16.5753
 30
0.000000
  70
    32
  0
SEQEND
  8
0
  5
BAB
  0
LINE
  5
217
  8
0
 10
2.9999999513966031
 20
17.103872533782241
 30
0.0
 11
4.0499999521489372
 21
17.103872533782241
 31
0.0
  0
LINE
  5
218
  8
0
 10
7.949999950520577
 20
17.103872533782241
 30
0.0
 11
8.2210547125614521
 21
17.103872533782241
 31
0.0
  0
LINE
  5
219
  8
0
 10
10.165069102095
 20
17.102514876440409
 30
0.0
 11
10.684021613556981
 21
17.059884810408221
 31
0.0
  0
LINE
  5
21A
  8
0
 10
43.626769869177217
 20
18.603872533782241
 30
0.0
 11
42.545553412426663
 21
18.603872533782241
 31
0.0
  0
ARC
  5
21B
  8
0
 10
42.545553412426663
 20
18.10387253378223
 30
0.0
 40
0.5
 50
90.0
 51
180.0
  0
LINE
  5
21C
  8
0
 10
11.4999999513966
 20
18.603872533782241
 30
0.0
 11
7.7499999513966031
 21
18.603872533782241
 31
0.0
  0
ARC
  5
21D
  8
0
 10
11.4999999513966
 20
18.10387253378223
 30
0.0
 40
0.5
 50
0.0
 51
90.0
  0
LINE
  5
21E
  8
0
 10
7.7499999513966031
 20
18.603872533782241
 30
0.0
 11
4.2499999513966031
 21
18.603872533782241
 31
0.0
  0
LINE
  5
21F
  8
0
 10
4.2499999513966031
 20
18.603872533782241
 30
0.0
 11
-0.0000000486033969
 21
18.603872533782241
 31
0.0
  0
ARC
  5
220
  8
0
 10
10.12413380014914
 20
16.60419339280304
 30
0.0
 40
0.5
 50
85.30390377047361
 51
183.30897785213369
  0
ARC
  5
221
  8
0
 10
10.643086311611111
 20
16.561563326770511
 30
0.0
 40
0.5
 50
5.2698069517616766
 51
85.30390377047361
  0
ARC
  5
222
  8
0
 10
8.2210547125614521
 20
16.60387253378201
 30
0.0
 40
0.5
 50
3.2304308083869322
 51
90.0
  0
POLYLINE
  8
0
  5
BAC
  66
     1
 10
0.000000
 20
0.000000
 30
0.000000
  70
     8
  0
VERTEX
  8
0
  5
BAD
 10
23.7500
 20
4.60387
 30
0.000000
  70
    32
  0
VERTEX
  8
0
  5
BAE
 10
23.8412
 20
4.62623
 30
0.000000
  70
    32
  0
VERTEX
  8
0
  5
BAF
 10
23.9323
 20
4.64860
 30
0.000000
  70
    32
  0
VERTEX
  8
0
  5
BB0
 10
24.0235
 20
4.67097
 30
0.000000
  70
    32
  0
VERTEX
  8
0
  5
BB1
 10
24.1146
 20
4.69336
 30
0.000000
  70
    32
  0
VERTEX
  8
0
  5
BB2
 10
24.2057
 20
4.71578
 30
0.000000
  70
    32
  0
VERTEX
  8
0
  5
BB3
 10
24.2969
 20
4.73822
 30
0.000000
  70
    32
  0
VERTEX
  8
0
  5
BB4
 10
24.3880
 20
4.76069
 30
0.000000
  70
    32
  0
VERTEX
  8
0
  5
BB5
 10
24.4791
 20
4.78321
 30
0.000000
  70
    32
  0
VERTEX
  8
0
  5
BB6
 10
24.5702
 20
4.80576
 30
0.000000
  70
    32
  0
VERTEX
  8
0
  5
BB7
 10
24.6612
 20
4.82837
 30
0.000000
  70
    32
  0
VERTEX
  8
0
  5
BB8
 10
24.7523
 20
4.85103
 30
0.000000
  70
    32
  0
VERTEX
  8
0
  5
BB9
 10
24.8433
 20
4.87376
 30
0.000000
  70
    32
  0
VERTEX
  8
0
  5
BBA
 10
24.9343
 20
4.89654
 30
0.000000
  70
    32
  0
VERTEX
  8
0
  5
BBB
 10
25.0253
 20
4.91940
 30
0.000000
  70
    32
  0
VERTEX
  8
0
  5
BBC
 10
25.1163
 20
4.94234
 30
0.000000
  70
    32
  0
VERTEX
  8
0
  5
BBD
 10
25.2072
 20
4.96536
 30
0.000000
  70
    32
  0
VERTEX
  8
0
  5
BBE
 10
25.2981
 20
4.98847
 30
0.000000
  70
    32
  0
VERTEX
  8
0
  5
BBF
 10
25.3890
 20
5.01167
 30
0.000000
  70
    32
  0
VERTEX
  8
0
  5
BC0
 10
25.4798
 20
5.03497
 30
0.000000
  70
    32
  0
VERTEX
  8
0
  5
BC1
 10
25.5706
 20
5.05838
 30
0.000000
  70
    32
  0
VERTEX
  8
0
  5
BC2
 10
25.6614
 20
5.08189
 30
0.000000
  70
    32
  0
VERTEX
  8
0
  5
BC3
 10
25.7521
 20
5.10552
 30
0.000000
  70
    32
  0
VERTEX
  8
0
  5
BC4
 10
25.8428
 20
5.12927
 30
0.000000
  70
    32
  0
VERTEX
  8
0
  5
BC5
 10
25.9334
 20
5.15315
 30
0.000000
  70
    32
  0
VERTEX
  8
0
  5
BC6
 10
26.0240
 20
5.17716
 30
0.000000
  70
    32
  0
VERTEX
  8
0
  5
BC7
 10
26.1145
 20
5.20131
 30
0.000000
  70
    32
  0
VERTEX
  8
0
  5
BC8
 10
26.2050
 20
5.22560
 30
0.000000
  70
    32
  0
VERTEX
  8
0
  5
BC9
 10
26.2955
 20
5.25004
 30
0.000000
  70
    32
  0
VERTEX
  8
0
  5
BCA
 10
26.3858
 20
5.27464
 30
0.000000
  70
    32
  0
VERTEX
  8
0
  5
BCB
 10
26.4762
 20
5.29939
 30
0.000000
  70
    32
  0
VERTEX
  8
0
  5
BCC
 10
26.5665
 20
5.32431
 30
0.000000
  70
    32
  0
VERTEX
  8
0
  5
BCD
 10
26.6567
 20
5.34940
 30
0.000000
  70
    32
  0
VERTEX
  8
0
  5
BCE
 10
26.7468
 20
5.37467
 30
0.000000
  70
    32
  0
VERTEX
  8
0
  5
BCF
 10
26.8369
 20
5.40011
 30
0.000000
  70
    32
  0
VERTEX
  8
0
  5
BD0
 10
26.9270
 20
5.42575
 30
0.000000
  70
    32
  0
VERTEX
  8
0
  5
BD1
 10
27.0169
 20
5.45158
 30
0.000000
  70
    32
  0
VERTEX
  8
0
  5
BD2
 10
27.1069
 20
5.47760
 30
0.000000
  70
    32
  0
VERTEX
  8
0
  5
BD3
 10
27.1967
 20
5.50383
 30
0.000000
  70
    32
  0
VERTEX
  8
0
  5
BD4
 10
27.2864
 20
5.53027
 30
0.000000
  70
    32
  0
VERTEX
  8
0
  5
BD5
 10
27.3761
 20
5.55692
 30
0.000000
  70
    32
  0
VERTEX
  8
0
  5
BD6
 10
27.4657
 20
5.58380
 30
0.000000
  70
    32
  0
VERTEX
  8
0
  5
BD7
 10
27.5553
 20
5.61090
 30
0.000000
  70
    32
  0
VERTEX
  8
0
  5
BD8
 10
27.6447
 20
5.63823
 30
0.000000
  70
    32
  0
VERTEX
  8
0
  5
BD9
 10
27.7341
 20
5.66579
 30
0.000000
  70
    32
  0
VERTEX
  8
0
  5
BDA
 10
27.8234
 20
5.69360
 30
0.000000
  70
    32
  0
VERTEX
  8
0
  5
BDB
 10
27.9126
 20
5.72166
 30
0.000000
  70
    32
  0
VERTEX
  8
0
  5
BDC
 10
28.0017
 20
5.74997
 30
0.000000
  70
    32
  0
VERTEX
  8
0
  5
BDD
 10
28.0908
 20
5.77854
 30
0.000000
  70
    32
  0
VERTEX
  8
0
  5
BDE
 10
28.1797
 20
5.80737
 30
0.000000
  70
    32
  0
VERTEX
  8
0
  5
BDF
 10
28.2685
 20
5.83648
 30
0.000000
  70
    32
  0
VERTEX
  8
0
  5
BE0
 10
28.3573
 20
5.86586
 30
0.000000
  70
    32
  0
VERTEX
  8
0
  5
BE1
 10
28.4460
 20
5.89552
 30
0.000000
  70
    32
  0
VERTEX
  8
0
  5
BE2
 10
28.5345
 20
5.92546
 30
0.000000
  70
    32
  0
VERTEX
  8
0
  5
BE3
 10
28.6230
 20
5.95570
 30
0.000000
  70
    32
  0
VERTEX
  8
0
  5
BE4
 10
28.7113
 20
5.98623
 30
0.000000
  70
    32
  0
VERTEX
  8
0
  5
BE5
 10
28.7996
 20
6.01707
 30
0.000000
  70
    32
  0
VERTEX
  8
0
  5
BE6
 10
28.8877
 20
6.04822
 30
0.000000
  70
    32
  0
VERTEX
  8
0
  5
BE7
 10
28.9758
 20
6.07968
 30
0.000000
  70
    32
  0
VERTEX
  8
0
  5
BE8
 10
29.0637
 20
6.11146
 30
0.000000
  70
    32
  0
VERTEX
  8
0
  5
BE9
 10
29.1515
 20
6.14356
 30
0.000000
  70
    32
  0
VERTEX
  8
0
  5
BEA
 10
29.2393
 20
6.17599
 30
0.000000
  70
    32
  0
VERTEX
  8
0
  5
BEB
 10
29.3269
 20
6.20876
 30
0.000000
  70
    32
  0
VERTEX
  8
0
  5
BEC
 10
29.4143
 20
6.24188
 30
0.000000
  70
    32
  0
VERTEX
  8
0
  5
BED
 10
29.5017
 20
6.27533
 30
0.000000
  70
    32
  0
VERTEX
  8
0
  5
BEE
 10
29.5889
 20
6.30914
 30
0.000000
  70
    32
  0
VERTEX
  8
0
  5
BEF
 10
29.6761
 20
6.34331
 30
0.000000
  70
    32
  0
VERTEX
  8
0
  5
BF0
 10
29.7630
 20
6.37784
 30
0.000000
  70
    32
  0
VERTEX
  8
0
  5
BF1
 10
29.8499
 20
6.41275
 30
0.000000
  70
    32
  0
VERTEX
  8
0
  5
BF2
 10
29.9367
 20
6.44802
 30
0.000000
  70
    32
  0
VERTEX
  8
0
  5
BF3
 10
30.0233
 20
6.48367
 30
0.000000
  70
    32
  0
VERTEX
  8
0
  5
BF4
 10
30.1097
 20
6.51968
 30
0.000000
  70
    32
  0
VERTEX
  8
0
  5
BF5
 10
30.1961
 20
6.55607
 30
0.000000
  70
    32
  0
VERTEX
  8
0
  5
BF6
 10
30.2823
 20
6.59282
 30
0.000000
  70
    32
  0
VERTEX
  8
0
  5
BF7
 10
30.3684
 20
6.62993
 30
0.000000
  70
    32
  0
VERTEX
  8
0
  5
BF8
 10
30.4543
 20
6.66741
 30
0.000000
  70
    32
  0
VERTEX
  8
0
  5
BF9
 10
30.5402
 20
6.70524
 30
0.000000
  70
    32
  0
VERTEX
  8
0
  5
BFA
 10
30.6258
 20
6.74343
 30
0.000000
  70
    32
  0
VERTEX
  8
0
  5
BFB
 10
30.7114
 20
6.78196
 30
0.000000
  70
    32
  0
VERTEX
  8
0
  5
BFC
 10
30.7968
 20
6.82085
 30
0.000000
  70
    32
  0
VERTEX
  8
0
  5
BFD
 10
30.8821
 20
6.86009
 30
0.000000
  70
    32
  0
VERTEX
  8
0
  5
BFE
 10
30.9672
 20
6.89967
 30
0.000000
  70
    32
  0
VERTEX
  8
0
  5
BFF
 10
31.0522
 20
6.93959
 30
0.000000
  70
    32
  0
VERTEX
  8
0
  5
C00
 10
31.1370
 20
6.97985
 30
0.000000
  70
    32
  0
VERTEX
  8
0
  5
C01
 10
31.2218
 20
7.02045
 30
0.000000
  70
    32
  0
VERTEX
  8
0
  5
C02
 10
31.3063
 20
7.06138
 30
0.000000
  70
    32
  0
VERTEX
  8
0
  5
C03
 10
31.3907
 20
7.10265
 30
0.000000
  70
    32
  0
VERTEX
  8
0
  5
C04
 10
31.4750
 20
7.14424
 30
0.000000
  70
    32
  0
VERTEX
  8
0
  5
C05
 10
31.5592
 20
7.18616
 30
0.000000
  70
    32
  0
VERTEX
  8
0
  5
C06
 10
31.6431
 20
7.22840
 30
0.000000
  70
    32
  0
VERTEX
  8
0
  5
C07
 10
31.7270
 20
7.27097
 30
0.000000
  70
    32
  0
VERTEX
  8
0
  5
C08
 10
31.8107
 20
7.31385
 30
0.000000
  70
    32
  0
VERTEX
  8
0
  5
C09
 10
31.8942
 20
7.35705
 30
0.000000
  70
    32
  0
VERTEX
  8
0
  5
C0A
 10
31.9776
 20
7.40057
 30
0.000000
  70
    32
  0
VERTEX
  8
0
  5
C0B
 10
32.0609
 20
7.44439
 30
0.000000
  70
    32
  0
VERTEX
  8
0
  5
C0C
 10
32.1440
 20
7.48852
 30
0.000000
  70
    32
  0
VERTEX
  8
0
  5
C0D
 10
32.2269
 20
7.53296
 30
0.000000
  70
    32
  0
VERTEX
  8
0
  5
C0E
 10
32.3097
 20
7.57770
 30
0.000000
  70
    32
  0
VERTEX
  8
0
  5
C0F
 10
32.3923
 20
7.62275
 30
0.000000
  70
    32
  0
VERTEX
  8
0
  5
C10
 10
32.4748
 20
7.66809
 30
0.000000
  70
    32
  0
VERTEX
  8
0
  5
C11
 10
32.5571
 20
7.71372
 30
0.000000
  70
    32
  0
VERTEX
  8
0
  5
C12
 10
32.6393
 20
7.75965
 30
0.000000
  70
    32
  0
VERTEX
  8
0
  5
C13
 10
32.7213
 20
7.80587
 30
0.000000
  70
    32
  0
VERTEX
  8
0
  5
C14
 10
32.8032
 20
7.85238
 30
0.000000
  70
    32
  0
VERTEX
  8
0
  5
C15
 10
32.8848
 20
7.89917
 30
0.000000
  70
    32
  0
VERTEX
  8
0
  5
C16
 10
32.9664
 20
7.94624
 30
0.000000
  70
    32
  0
VERTEX
  8
0
  5
C17
 10
33.0477
 20
7.99360
 30
0.000000
  70
    32
  0
VERTEX
  8
0
  5
C18
 10
33.1290
 20
8.04123
 30
0.000000
  70
    32
  0
VERTEX
  8
0
  5
C19
 10
33.2100
 20
8.08913
 30
0.000000
  70
    32
  0
VERTEX
  8
0
  5
C1A
 10
33.2909
 20
8.13731
 30
0.000000
  70
    32
  0
VERTEX
  8
0
  5
C1B
 10
33.3716
 20
8.18576
 30
0.000000
  70
    32
  0
VERTEX
  8
0
  5
C1C
 10
33.4521
 20
8.23447
 30
0.000000
  70
    32
  0
VERTEX
  8
0
  5
C1D
 10
33.5325
 20
8.28345
 30
0.000000
  70
    32
  0
VERTEX
  8
0
  5
C1E
 10
33.6127
 20
8.33269
 30
0.000000
  70
    32
  0
VERTEX
  8
0
  5
C1F
 10
33.6928
 20
8.38219
 30
0.000000
  70
    32
  0
VERTEX
  8
0
  5
C20
 10
33.7727
 20
8.43195
 30
0.000000
  70
    32
  0
VERTEX
  8
0
  5
C21
 10
33.8524
 20
8.48196
 30
0.000000
  70
    32
  0
VERTEX
  8
0
  5
C22
 10
33.9319
 20
8.53222
 30
0.000000
  70
    32
  0
VERTEX
  8
0
  5
C23
 10
34.0113
 20
8.58273
 30
0.000000
  70
    32
  0
VERTEX
  8
0
  5
C24
 10
34.0905
 20
8.63349
 30
0.000000
  70
    32
  0
VERTEX
  8
0
  5
C25
 10
34.1695
 20
8.68449
 30
0.000000
  70
    32
  0
VERTEX
  8
0
  5
C26
 10
34.2483
 20
8.73573
 30
0.000000
  70
    32
  0
VERTEX
  8
0
  5
C27
 10
34.3270
 20
8.78721
 30
0.000000
  70
    32
  0
VERTEX
  8
0
  5
C28
 10
34.4055
 20
8.83893
 30
0.000000
  70
    32
  0
VERTEX
  8
0
  5
C29
 10
34.4838
 20
8.89088
 30
0.000000
  70
    32
  0
VERTEX
  8
0
  5
C2A
 10
34.5619
 20
8.94306
 30
0.000000
  70
    32
  0
VERTEX
  8
0
  5
C2B
 10
34.6399
 20
8.99547
 30
0.000000
  70
    32
  0
VERTEX
  8
0
  5
C2C
 10
34.7177
 20
9.04810
 30
0.000000
  70
    32
  0
VERTEX
  8
0
  5
C2D
 10
34.7953
 20
9.10096
 30
0.000000
  70
    32
  0
VERTEX
  8
0
  5
C2E
 10
34.8727
 20
9.15403
 30
0.000000
  70
    32
  0
VERTEX
  8
0
  5
C2F
 10
34.9499
 20
9.20733
 30
0.000000
  70
    32
  0
VERTEX
  8
0
  5
C30
 10
35.0270
 20
9.26084
 30
0.000000
  70
    32
  0
VERTEX
  8
0
  5
C31
 10
35.1038
 20
9.31456
 30
0.000000
  70
    32
  0
VERTEX
  8
0
  5
C32
 10
35.1805
 20
9.36850
 30
0.000000
  70
    32
  0
VERTEX
  8
0
  5
C33
 10
35.2570
 20
9.42264
 30
0.000000
  70
    32
  0
VERTEX
  8
0
  5
C34
 10
35.3333
 20
9.47698
 30
0.000000
  70
    32
  0
VERTEX
  8
0
  5
C35
 10
35.4094
 20
9.53153
 30
0.000000
  70
    32
  0
VERTEX
  8
0
  5
C36
 10
35.4854
 20
9.58628
 30
0.000000
  70
    32
  0
VERTEX
  8
0
  5
C37
 10
35.5611
 20
9.64122
 30
0.000000
  70
    32
  0
VERTEX
  8
0
  5
C38
 10
35.6367
 20
9.69636
 30
0.000000
  70
    32
  0
VERTEX
  8
0
  5
C39
 10
35.7120
 20
9.75169
 30
0.000000
  70
    32
  0
VERTEX
  8
0
  5
C3A
 10
35.7872
 20
9.80721
 30
0.000000
  70
    32
  0
VERTEX
  8
0
  5
C3B
 10
35.8621
 20
9.86292
 30
0.000000
  70
    32
  0
VERTEX
  8
0
  5
C3C
 10
35.9369
 20
9.91881
 30
0.000000
  70
    32
  0
VERTEX
  8
0
  5
C3D
 10
36.0115
 20
9.97488
 30
0.000000
  70
    32
  0
VERTEX
  8
0
  5
C3E
 10
36.0859
 20
10.0311
 30
0.000000
  70
    32
  0
VERTEX
  8
0
  5
C3F
 10
36.1601
 20
10.0876
 30
0.000000
  70
    32
  0
VERTEX
  8
0
  5
C40
 10
36.2341
 20
10.1442
 30
0.000000
  70
    32
  0
VERTEX
  8
0
  5
C41
 10
36.3079
 20
10.2009
 30
0.000000
  70
    32
  0
VERTEX
  8
0
  5
C42
 10
36.3815
 20
10.2579
 30
0.000000
  70
    32
  0
VERTEX
  8
0
  5
C43
 10
36.4548
 20
10.3150
 30
0.000000
  70
    32
  0
VERTEX
  8
0
  5
C44
 10
36.5280
 20
10.3723
 30
0.000000
  70
    32
  0
VERTEX
  8
0
  5
C45
 10
36.6010
 20
10.4297
 30
0.000000
  70
    32
  0
VERTEX
  8
0
  5
C46
 10
36.6738
 20
10.4873
 30
0.000000
  70
    32
  0
VERTEX
  8
0
  5
C47
 10
36.7464
 20
10.5451
 30
0.000000
  70
    32
  0
VERTEX
  8
0
  5
C48
 10
36.8188
 20
10.6031
 30
0.000000
  70
    32
  0
VERTEX
  8
0
  5
C49
 10
36.8910
 20
10.6613
 30
0.000000
  70
    32
  0
VERTEX
  8
0
  5
C4A
 10
36.9630
 20
10.7197
 30
0.000000
  70
    32
  0
VERTEX
  8
0
  5
C4B
 10
37.0348
 20
10.7783
 30
0.000000
  70
    32
  0
VERTEX
  8
0
  5
C4C
 10
37.1064
 20
10.8371
 30
0.000000
  70
    32
  0
VERTEX
  8
0
  5
C4D
 10
37.1778
 20
10.8961
 30
0.000000
  70
    32
  0
VERTEX
  8
0
  5
C4E
 10
37.2490
 20
10.9553
 30
0.000000
  70
    32
  0
VERTEX
  8
0
  5
C4F
 10
37.3200
 20
11.0148
 30
0.000000
  70
    32
  0
VERTEX
  8
0
  5
C50
 10
37.3908
 20
11.0745
 30
0.000000
  70
    32
  0
VERTEX
  8
0
  5
C51
 10
37.4614
 20
11.1344
 30
0.000000
  70
    32
  0
VERTEX
  8
0
  5
C52
 10
37.5318
 20
11.1945
 30
0.000000
  70
    32
  0
VERTEX
  8
0
  5
C53
 10
37.6020
 20
11.2550
 30
0.000000
  70
    32
  0
VERTEX
  8
0
  5
C54
 10
37.6721
 20
11.3156
 30
0.000000
  70
    32
  0
VERTEX
  8
0
  5
C55
 10
37.7419
 20
11.3765
 30
0.000000
  70
    32
  0
VERTEX
  8
0
  5
C56
 10
37.8115
 20
11.4377
 30
0.000000
  70
    32
  0
VERTEX
  8
0
  5
C57
 10
37.8810
 20
11.4991
 30
0.000000
  70
    32
  0
VERTEX
  8
0
  5
C58
 10
37.9502
 20
11.5608
 30
0.000000
  70
    32
  0
VERTEX
  8
0
  5
C59
 10
38.0193
 20
11.6228
 30
0.000000
  70
    32
  0
VERTEX
  8
0
  5
C5A
 10
38.0881
 20
11.6851
 30
0.000000
  70
    32
  0
VERTEX
  8
0
  5
C5B
 10
38.1568
 20
11.7476
 30
0.000000
  70
    32
  0
VERTEX
  8
0
  5
C5C
 10
38.2253
 20
11.8105
 30
0.000000
  70
    32
  0
VERTEX
  8
0
  5
C5D
 10
38.2935
 20
11.8736
 30
0.000000
  70
    32
  0
VERTEX
  8
0
  5
C5E
 10
38.3616
 20
11.9370
 30
0.000000
  70
    32
  0
VERTEX
  8
0
  5
C5F
 10
38.4295
 20
12.0008
 30
0.000000
  70
    32
  0
VERTEX
  8
0
  5
C60
 10
38.4972
 20
12.0649
 30
0.000000
  70
    32
  0
VERTEX
  8
0
  5
C61
 10
38.5648
 20
12.1292
 30
0.000000
  70
    32
  0
VERTEX
  8
0
  5
C62
 10
38.6321
 20
12.1939
 30
0.000000
  70
    32
  0
VERTEX
  8
0
  5
C63
 10
38.6992
 20
12.2590
 30
0.000000
  70
    32
  0
VERTEX
  8
0
  5
C64
 10
38.7662
 20
12.3243
 30
0.000000
  70
    32
  0
VERTEX
  8
0
  5
C65
 10
38.8329
 20
12.3900
 30
0.000000
  70
    32
  0
VERTEX
  8
0
  5
C66
 10
38.8995
 20
12.4561
 30
0.000000
  70
    32
  0
VERTEX
  8
0
  5
C67
 10
38.9659
 20
12.5225
 30
0.000000
  70
    32
  0
VERTEX
  8
0
  5
C68
 10
39.0321
 20
12.5892
 30
0.000000
  70
    32
  0
VERTEX
  8
0
  5
C69
 10
39.0981
 20
12.6563
 30
0.000000
  70
    32
  0
VERTEX
  8
0
  5
C6A
 10
39.1639
 20
12.7238
 30
0.000000
  70
    32
  0
VERTEX
  8
0
  5
C6B
 10
39.2295
 20
12.7916
 30
0.000000
  70
    32
  0
VERTEX
  8
0
  5
C6C
 10
39.2950
 20
12.8598
 30
0.000000
  70
    32
  0
VERTEX
  8
0
  5
C6D
 10
39.3602
 20
12.9284
 30
0.000000
  70
    32
  0
VERTEX
  8
0
  5
C6E
 10
39.4253
 20
12.9974
 30
0.000000
  70
    32
  0
VERTEX
  8
0
  5
C6F
 10
39.4902
 20
13.0668
 30
0.000000
  70
    32
  0
VERTEX
  8
0
  5
C70
 10
39.5549
 20
13.1366
 30
0.000000
  70
    32
  0
VERTEX
  8
0
  5
C71
 10
39.6194
 20
13.2067
 30
0.000000
  70
    32
  0
VERTEX
  8
0
  5
C72
 10
39.6837
 20
13.2773
 30
0.000000
  70
    32
  0
VERTEX
  8
0
  5
C73
 10
39.7478
 20
13.3483
 30
0.000000
  70
    32
  0
VERTEX
  8
0
  5
C74
 10
39.8118
 20
13.4197
 30
0.000000
  70
    32
  0
VERTEX
  8
0
  5
C75
 10
39.8756
 20
13.4915
 30
0.000000
  70
    32
  0
VERTEX
  8
0
  5
C76
 10
39.9392
 20
13.5638
 30
0.000000
  70
    32
  0
VERTEX
  8
0
  5
C77
 10
40.0026
 20
13.6365
 30
0.000000
  70
    32
  0
VERTEX
  8
0
  5
C78
 10
40.0658
 20
13.7096
 30
0.000000
  70
    32
  0
VERTEX
  8
0
  5
C79
 10
40.1288
 20
13.7831
 30
0.000000
  70
    32
  0
VERTEX
  8
0
  5
C7A
 10
40.1917
 20
13.8572
 30
0.000000
  70
    32
  0
VERTEX
  8
0
  5
C7B
 10
40.2543
 20
13.9316
 30
0.000000
  70
    32
  0
VERTEX
  8
0
  5
C7C
 10
40.3167
 20
14.0065
 30
0.000000
  70
    32
  0
VERTEX
  8
0
  5
C7D
 10
40.3787
 20
14.0819
 30
0.000000
  70
    32
  0
VERTEX
  8
0
  5
C7E
 10
40.4404
 20
14.1577
 30
0.000000
  70
    32
  0
VERTEX
  8
0
  5
C7F
 10
40.5017
 20
14.2339
 30
0.000000
  70
    32
  0
VERTEX
  8
0
  5
C80
 10
40.5625
 20
14.3106
 30
0.000000
  70
    32
  0
VERTEX
  8
0
  5
C81
 10
40.6228
 20
14.3877
 30
0.000000
  70
    32
  0
VERTEX
  8
0
  5
C82
 10
40.6825
 20
14.4652
 30
0.000000
  70
    32
  0
VERTEX
  8
0
  5
C83
 10
40.7416
 20
14.5432
 30
0.000000
  70
    32
  0
VERTEX
  8
0
  5
C84
 10
40.8000
 20
14.6217
 30
0.000000
  70
    32
  0
VERTEX
  8
0
  5
C85
 10
40.8577
 20
14.7005
 30
0.000000
  70
    32
  0
VERTEX
  8
0
  5
C86
 10
40.9147
 20
14.7798
 30
0.000000
  70
    32
  0
VERTEX
  8
0
  5
C87
 10
40.9709
 20
14.8595
 30
0.000000
  70
    32
  0
VERTEX
  8
0
  5
C88
 10
41.0262
 20
14.9397
 30
0.000000
  70
    32
  0
VERTEX
  8
0
  5
C89
 10
41.0806
 20
15.0203
 30
0.000000
  70
    32
  0
VERTEX
  8
0
  5
C8A
 10
41.1340
 20
15.1013
 30
0.000000
  70
    32
  0
VERTEX
  8
0
  5
C8B
 10
41.1864
 20
15.1827
 30
0.000000
  70
    32
  0
VERTEX
  8
0
  5
C8C
 10
41.2378
 20
15.2646
 30
0.000000
  70
    32
  0
VERTEX
  8
0
  5
C8D
 10
41.2881
 20
15.3469
 30
0.000000
  70
    32
  0
VERTEX
  8
0
  5
C8E
 10
41.3372
 20
15.4296
 30
0.000000
  70
    32
  0
VERTEX
  8
0
  5
C8F
 10
41.3851
 20
15.5127
 30
0.000000
  70
    32
  0
VERTEX
  8
0
  5
C90
 10
41.4318
 20
15.5963
 30
0.000000
  70
    32
  0
VERTEX
  8
0
  5
C91
 10
41.4772
 20
15.6803
 30
0.000000
  70
    32
  0
VERTEX
  8
0
  5
C92
 10
41.5212
 20
15.7647
 30
0.000000
  70
    32
  0
VERTEX
  8
0
  5
C93
 10
41.5638
 20
15.8495
 30
0.000000
  70
    32
  0
VERTEX
  8
0
  5
C94
 10
41.6050
 20
15.9347
 30
0.000000
  70
    32
  0
VERTEX
  8
0
  5
C95
 10
41.6447
 20
16.0203
 30
0.000000
  70
    32
  0
VERTEX
  8
0
  5
C96
 10
41.6829
 20
16.1064
 30
0.000000
  70
    32
  0
VERTEX
  8
0
  5
C97
 10
41.7194
 20
16.1928
 30
0.000000
  70
    32
  0
VERTEX
  8
0
  5
C98
 10
41.7543
 20
16.2797
 30
0.000000
  70
    32
  0
VERTEX
  8
0
  5
C99
 10
41.7875
 20
16.3670
 30
0.000000
  70
    32
  0
VERTEX
  8
0
  5
C9A
 10
41.8190
 20
16.4547
 30
0.000000
  70
    32
  0
VERTEX
  8
0
  5
C9B
 10
41.8487
 20
16.5428
 30
0.000000
  70
    32
  0
VERTEX
  8
0
  5
C9C
 10
41.8765
 20
16.6313
 30
0.000000
  70
    32
  0
VERTEX
  8
0
  5
C9D
 10
41.9025
 20
16.7201
 30
0.000000
  70
    32
  0
VERTEX
  8
0
  5
C9E
 10
41.9265
 20
16.8094
 30
0.000000
  70
    32
  0
VERTEX
  8
0
  5
C9F
 10
41.9485
 20
16.8991
 30
0.000000
  70
    32
  0
VERTEX
  8
0
  5
CA0
 10
41.9686
 20
16.9892
 30
0.000000
  70
    32
  0
VERTEX
  8
0
  5
CA1
 10
41.9865
 20
17.0797
 30
0.000000
  70
    32
  0
VERTEX
  8
0
  5
CA2
 10
42.0023
 20
17.1706
 30
0.000000
  70
    32
  0
VERTEX
  8
0
  5
CA3
 10
42.0159
 20
17.2619
 30
0.000000
  70
    32
  0
VERTEX
  8
0
  5
CA4
 10
42.0272
 20
17.3536
 30
0.000000
  70
    32
  0
VERTEX
  8
0
  5
CA5
 10
42.0363
 20
17.4457
 30
0.000000
  70
    32
  0
VERTEX
  8
0
  5
CA6
 10
42.0431
 20
17.5381
 30
0.000000
  70
    32
  0
VERTEX
  8
0
  5
CA7
 10
42.0475
 20
17.6310
 30
0.000000
  70
    32
  0
VERTEX
  8
0
  5
CA8
 10
42.0497
 20
17.7242
 30
0.000000
  70
    32
  0
VERTEX
  8
0
  5
CA9
 10
42.0502
 20
17.8177
 30
0.000000
  70
    32
  0
VERTEX
  8
0
  5
CAA
 10
42.0494
 20
17.9114
 30
0.000000
  70
    32
  0
VERTEX
  8
0
  5
CAB
 10
42.0477
 20
18.0052
 30
0.000000
  70
    32
  0
VERTEX
  8
0
  5
CAC
 10
42.0456
 20
18.0991
 30
0.000000
  70
    32
  0
SEQEND
  8
0
  5
CAD
  0
POLYLINE
  8
0
  5
CAE
  66
     1
 10
0.000000
 20
0.000000
 30
0.000000
  70
     8
  0
VERTEX
  8
0
  5
CAF
 10
39.8108
 20
12.0981
 30
0.000000
  70
    32
  0
VERTEX
  8
0
  5
CB0
 10
39.8197
 20
12.1073
 30
0.000000
  70
    32
  0
VERTEX
  8
0
  5
CB1
 10
39.8286
 20
12.1164
 30
0.000000
  70
    32
  0
VERTEX
  8
0
  5
CB2
 10
39.8374
 20
12.1255
 30
0.000000
  70
    32
  0
VERTEX
  8
0
  5
CB3
 10
39.8463
 20
12.1347
 30
0.000000
  70
    32
  0
VERTEX
  8
0
  5
CB4
 10
39.8551
 20
12.1438
 30
0.000000
  70
    32
  0
VERTEX
  8
0
  5
CB5
 10
39.8640
 20
12.1530
 30
0.000000
  70
    32
  0
VERTEX
  8
0
  5
CB6
 10
39.8728
 20
12.1622
 30
0.000000
  70
    32
  0
VERTEX
  8
0
  5
CB7
 10
39.8816
 20
12.1713
 30
0.000000
  70
    32
  0
VERTEX
  8
0
  5
CB8
 10
39.8905
 20
12.1805
 30
0.000000
  70
    32
  0
VERTEX
  8
0
  5
CB9
 10
39.8993
 20
12.1897
 30
0.000000
  70
    32
  0
VERTEX
  8
0
  5
CBA
 10
39.9081
 20
12.1989
 30
0.000000
  70
    32
  0
VERTEX
  8
0
  5
CBB
 10
39.9170
 20
12.2081
 30
0.000000
  70
    32
  0
VERTEX
  8
0
  5
CBC
 10
39.9258
 20
12.2173
 30
0.000000
  70
    32
  0
VERTEX
  8
0
  5
CBD
 10
39.9346
 20
12.2265
 30
0.000000
  70
    32
  0
VERTEX
  8
0
  5
CBE
 10
39.9434
 20
12.2357
 30
0.000000
  70
    32
  0
VERTEX
  8
0
  5
CBF
 10
39.9522
 20
12.2450
 30
0.000000
  70
    32
  0
VERTEX
  8
0
  5
CC0
 10
39.9610
 20
12.2542
 30
0.000000
  70
    32
  0
VERTEX
  8
0
  5
CC1
 10
39.9698
 20
12.2634
 30
0.000000
  70
    32
  0
VERTEX
  8
0
  5
CC2
 10
39.9786
 20
12.2727
 30
0.000000
  70
    32
  0
VERTEX
  8
0
  5
CC3
 10
39.9874
 20
12.2820
 30
0.000000
  70
    32
  0
VERTEX
  8
0
  5
CC4
 10
39.9962
 20
12.2912
 30
0.000000
  70
    32
  0
VERTEX
  8
0
  5
CC5
 10
40.0050
 20
12.3005
 30
0.000000
  70
    32
  0
VERTEX
  8
0
  5
CC6
 10
40.0138
 20
12.3098
 30
0.000000
  70
    32
  0
VERTEX
  8
0
  5
CC7
 10
40.0226
 20
12.3190
 30
0.000000
  70
    32
  0
VERTEX
  8
0
  5
CC8
 10
40.0314
 20
12.3283
 30
0.000000
  70
    32
  0
VERTEX
  8
0
  5
CC9
 10
40.0402
 20
12.3376
 30
0.000000
  70
    32
  0
VERTEX
  8
0
  5
CCA
 10
40.0490
 20
12.3469
 30
0.000000
  70
    32
  0
VERTEX
  8
0
  5
CCB
 10
40.0577
 20
12.3562
 30
0.000000
  70
    32
  0
VERTEX
  8
0
  5
CCC
 10
40.0665
 20
12.3656
 30
0.000000
  70
    32
  0
VERTEX
  8
0
  5
CCD
 10
40.0753
 20
12.3749
 30
0.000000
  70
    32
  0
VERTEX
  8
0
  5
CCE
 10
40.0841
 20
12.3842
 30
0.000000
  70
    32
  0
VERTEX
  8
0
  5
CCF
 10
40.0928
 20
12.3936
 30
0.000000
  70
    32
  0
VERTEX
  8
0
  5
CD0
 10
40.1016
 20
12.4029
 30
0.000000
  70
    32
  0
VERTEX
  8
0
  5
CD1
 10
40.1103
 20
12.4123
 30
0.000000
  70
    32
  0
VERTEX
  8
0
  5
CD2
 10
40.1191
 20
12.4216
 30
0.000000
  70
    32
  0
VERTEX
  8
0
  5
CD3
 10
40.1278
 20
12.4310
 30
0.000000
  70
    32
  0
VERTEX
  8
0
  5
CD4
 10
40.1366
 20
12.4404
 30
0.000000
  70
    32
  0
VERTEX
  8
0
  5
CD5
 10
40.1453
 20
12.4497
 30
0.000000
  70
    32
  0
VERTEX
  8
0
  5
CD6
 10
40.1541
 20
12.4591
 30
0.000000
  70
    32
  0
VERTEX
  8
0
  5
CD7
 10
40.1628
 20
12.4685
 30
0.000000
  70
    32
  0
VERTEX
  8
0
  5
CD8
 10
40.1716
 20
12.4779
 30
0.000000
  70
    32
  0
VERTEX
  8
0
  5
CD9
 10
40.1803
 20
12.4873
 30
0.000000
  70
    32
  0
VERTEX
  8
0
  5
CDA
 10
40.1890
 20
12.4967
 30
0.000000
  70
    32
  0
VERTEX
  8
0
  5
CDB
 10
40.1977
 20
12.5062
 30
0.000000
  70
    32
  0
VERTEX
  8
0
  5
CDC
 10
40.2065
 20
12.5156
 30
0.000000
  70
    32
  0
VERTEX
  8
0
  5
CDD
 10
40.2152
 20
12.5250
 30
0.000000
  70
    32
  0
VERTEX
  8
0
  5
CDE
 10
40.2239
 20
12.5345
 30
0.000000
  70
    32
  0
VERTEX
  8
0
  5
CDF
 10
40.2326
 20
12.5439
 30
0.000000
  70
    32
  0
VERTEX
  8
0
  5
CE0
 10
40.2413
 20
12.5534
 30
0.000000
  70
    32
  0
VERTEX
  8
0
  5
CE1
 10
40.2500
 20
12.5629
 30
0.000000
  70
    32
  0
VERTEX
  8
0
  5
CE2
 10
40.2587
 20
12.5723
 30
0.000000
  70
    32
  0
VERTEX
  8
0
  5
CE3
 10
40.2674
 20
12.5818
 30
0.000000
  70
    32
  0
VERTEX
  8
0
  5
CE4
 10
40.2761
 20
12.5913
 30
0.000000
  70
    32
  0
VERTEX
  8
0
  5
CE5
 10
40.2848
 20
12.6008
 30
0.000000
  70
    32
  0
VERTEX
  8
0
  5
CE6
 10
40.2935
 20
12.6103
 30
0.000000
  70
    32
  0
VERTEX
  8
0
  5
CE7
 10
40.3022
 20
12.6198
 30
0.000000
  70
    32
  0
VERTEX
  8
0
  5
CE8
 10
40.3109
 20
12.6293
 30
0.000000
  70
    32
  0
VERTEX
  8
0
  5
CE9
 10
40.3196
 20
12.6389
 30
0.000000
  70
    32
  0
VERTEX
  8
0
  5
CEA
 10
40.3283
 20
12.6484
 30
0.000000
  70
    32
  0
VERTEX
  8
0
  5
CEB
 10
40.3369
 20
12.6579
 30
0.000000
  70
    32
  0
VERTEX
  8
0
  5
CEC
 10
40.3456
 20
12.6675
 30
0.000000
  70
    32
  0
VERTEX
  8
0
  5
CED
 10
40.3543
 20
12.6770
 30
0.000000
  70
    32
  0
VERTEX
  8
0
  5
CEE
 10
40.3629
 20
12.6866
 30
0.000000
  70
    32
  0
VERTEX
  8
0
  5
CEF
 10
40.3716
 20
12.6962
 30
0.000000
  70
    32
  0
VERTEX
  8
0
  5
CF0
 10
40.3803
 20
12.7057
 30
0.000000
  70
    32
  0
VERTEX
  8
0
  5
CF1
 10
40.3889
 20
12.7153
 30
0.000000
  70
    32
  0
VERTEX
  8
0
  5
CF2
 10
40.3976
 20
12.7249
 30
0.000000
  70
    32
  0
VERTEX
  8
0
  5
CF3
 10
40.4062
 20
12.7345
 30
0.000000
  70
    32
  0
VERTEX
  8
0
  5
CF4
 10
40.4149
 20
12.7441
 30
0.000000
  70
    32
  0
VERTEX
  8
0
  5
CF5
 10
40.4235
 20
12.7537
 30
0.000000
  70
    32
  0
VERTEX
  8
0
  5
CF6
 10
40.4322
 20
12.7633
 30
0.000000
  70
    32
  0
VERTEX
  8
0
  5
CF7
 10
40.4408
 20
12.7730
 30
0.000000
  70
    32
  0
VERTEX
  8
0
  5
CF8
 10
40.4494
 20
12.7826
 30
0.000000
  70
    32
  0
VERTEX
  8
0
  5
CF9
 10
40.4581
 20
12.7922
 30
0.000000
  70
    32
  0
VERTEX
  8
0
  5
CFA
 10
40.4667
 20
12.8019
 30
0.000000
  70
    32
  0
VERTEX
  8
0
  5
CFB
 10
40.4753
 20
12.8115
 30
0.000000
  70
    32
  0
VERTEX
  8
0
  5
CFC
 10
40.4840
 20
12.8212
 30
0.000000
  70
    32
  0
VERTEX
  8
0
  5
CFD
 10
40.4926
 20
12.8309
 30
0.000000
  70
    32
  0
VERTEX
  8
0
  5
CFE
 10
40.5012
 20
12.8406
 30
0.000000
  70
    32
  0
VERTEX
  8
0
  5
CFF
 10
40.5098
 20
12.8502
 30
0.000000
  70
    32
  0
VERTEX
  8
0
  5
D00
 10
40.5184
 20
12.8599
 30
0.000000
  70
    32
  0
VERTEX
  8
0
  5
D01
 10
40.5270
 20
12.8696
 30
0.000000
  70
    32
  0
VERTEX
  8
0
  5
D02
 10
40.5356
 20
12.8793
 30
0.000000
  70
    32
  0
VERTEX
  8
0
  5
D03
 10
40.5442
 20
12.8891
 30
0.000000
  70
    32
  0
VERTEX
  8
0
  5
D04
 10
40.5528
 20
12.8988
 30
0.000000
  70
    32
  0
VERTEX
  8
0
  5
D05
 10
40.5614
 20
12.9085
 30
0.000000
  70
    32
  0
VERTEX
  8
0
  5
D06
 10
40.5700
 20
12.9183
 30
0.000000
  70
    32
  0
VERTEX
  8
0
  5
D07
 10
40.5786
 20
12.9280
 30
0.000000
  70
    32
  0
VERTEX
  8
0
  5
D08
 10
40.5872
 20
12.9378
 30
0.000000
  70
    32
  0
VERTEX
  8
0
  5
D09
 10
40.5958
 20
12.9475
 30
0.000000
  70
    32
  0
VERTEX
  8
0
  5
D0A
 10
40.6043
 20
12.9573
 30
0.000000
  70
    32
  0
VERTEX
  8
0
  5
D0B
 10
40.6129
 20
12.9671
 30
0.000000
  70
    32
  0
VERTEX
  8
0
  5
D0C
 10
40.6215
 20
12.9769
 30
0.000000
  70
    32
  0
VERTEX
  8
0
  5
D0D
 10
40.6301
 20
12.9866
 30
0.000000
  70
    32
  0
VERTEX
  8
0
  5
D0E
 10
40.6386
 20
12.9964
 30
0.000000
  70
    32
  0
VERTEX
  8
0
  5
D0F
 10
40.6472
 20
13.0062
 30
0.000000
  70
    32
  0
VERTEX
  8
0
  5
D10
 10
40.6558
 20
13.0161
 30
0.000000
  70
    32
  0
VERTEX
  8
0
  5
D11
 10
40.6643
 20
13.0259
 30
0.000000
  70
    32
  0
VERTEX
  8
0
  5
D12
 10
40.6729
 20
13.0357
 30
0.000000
  70
    32
  0
VERTEX
  8
0
  5
D13
 10
40.6814
 20
13.0456
 30
0.000000
  70
    32
  0
VERTEX
  8
0
  5
D14
 10
40.6900
 20
13.0554
 30
0.000000
  70
    32
  0
VERTEX
  8
0
  5
D15
 10
40.6985
 20
13.0653
 30
0.000000
  70
    32
  0
VERTEX
  8
0
  5
D16
 10
40.7070
 20
13.0751
 30
0.000000
  70
    32
  0
VERTEX
  8
0
  5
D17
 10
40.7156
 20
13.0850
 30
0.000000
  70
    32
  0
VERTEX
  8
0
  5
D18
 10
40.7241
 20
13.0949
 30
0.000000
  70
    32
  0
VERTEX
  8
0
  5
D19
 10
40.7327
 20
13.1047
 30
0.000000
  70
    32
  0
VERTEX
  8
0
  5
D1A
 10
40.7412
 20
13.1146
 30
0.000000
  70
    32
  0
VERTEX
  8
0
  5
D1B
 10
40.7497
 20
13.1245
 30
0.000000
  70
    32
  0
VERTEX
  8
0
  5
D1C
 10
40.7582
 20
13.1344
 30
0.000000
  70
    32
  0
VERTEX
  8
0
  5
D1D
 10
40.7667
 20
13.1444
 30
0.000000
  70
    32
  0
VERTEX
  8
0
  5
D1E
 10
40.7753
 20
13.1543
 30
0.000000
  70
    32
  0
VERTEX
  8
0
  5
D1F
 10
40.7838
 20
13.1642
 30
0.000000
  70
    32
  0
VERTEX
  8
0
  5
D20
 10
40.7923
 20
13.1742
 30
0.000000
  70
    32
  0
VERTEX
  8
0
  5
D21
 10
40.8008
 20
13.1841
 30
0.000000
  70
    32
  0
VERTEX
  8
0
  5
D22
 10
40.8093
 20
13.1941
 30
0.000000
  70
    32
  0
VERTEX
  8
0
  5
D23
 10
40.8178
 20
13.2040
 30
0.000000
  70
    32
  0
VERTEX
  8
0
  5
D24
 10
40.8263
 20
13.2140
 30
0.000000
  70
    32
  0
VERTEX
  8
0
  5
D25
 10
40.8348
 20
13.2240
 30
0.000000
  70
    32
  0
VERTEX
  8
0
  5
D26
 10
40.8433
 20
13.2340
 30
0.000000
  70
    32
  0
VERTEX
  8
0
  5
D27
 10
40.8518
 20
13.2440
 30
0.000000
  70
    32
  0
VERTEX
  8
0
  5
D28
 10
40.8603
 20
13.2540
 30
0.000000
  70
    32
  0
VERTEX
  8
0
  5
D29
 10
40.8688
 20
13.2640
 30
0.000000
  70
    32
  0
VERTEX
  8
0
  5
D2A
 10
40.8773
 20
13.2741
 30
0.000000
  70
    32
  0
VERTEX
  8
0
  5
D2B
 10
40.8858
 20
13.2841
 30
0.000000
  70
    32
  0
VERTEX
  8
0
  5
D2C
 10
40.8943
 20
13.2942
 30
0.000000
  70
    32
  0
VERTEX
  8
0
  5
D2D
 10
40.9028
 20
13.3043
 30
0.000000
  70
    32
  0
VERTEX
  8
0
  5
D2E
 10
40.9113
 20
13.3144
 30
0.000000
  70
    32
  0
VERTEX
  8
0
  5
D2F
 10
40.9198
 20
13.3245
 30
0.000000
  70
    32
  0
VERTEX
  8
0
  5
D30
 10
40.9282
 20
13.3346
 30
0.000000
  70
    32
  0
VERTEX
  8
0
  5
D31
 10
40.9367
 20
13.3447
 30
0.000000
  70
    32
  0
VERTEX
  8
0
  5
D32
 10
40.9452
 20
13.3548
 30
0.000000
  70
    32
  0
VERTEX
  8
0
  5
D33
 10
40.9537
 20
13.3650
 30
0.000000
  70
    32
  0
VERTEX
  8
0
  5
D34
 10
40.9622
 20
13.3751
 30
0.000000
  70
    32
  0
VERTEX
  8
0
  5
D35
 10
40.9707
 20
13.3853
 30
0.000000
  70
    32
  0
VERTEX
  8
0
  5
D36
 10
40.9792
 20
13.3955
 30
0.000000
  70
    32
  0
VERTEX
  8
0
  5
D37
 10
40.9876
 20
13.4057
 30
0.000000
  70
    32
  0
VERTEX
  8
0
  5
D38
 10
40.9961
 20
13.4159
 30
0.000000
  70
    32
  0
VERTEX
  8
0
  5
D39
 10
41.0046
 20
13.4261
 30
0.000000
  70
    32
  0
VERTEX
  8
0
  5
D3A
 10
41.0131
 20
13.4363
 30
0.000000
  70
    32
  0
VERTEX
  8
0
  5
D3B
 10
41.0216
 20
13.4466
 30
0.000000
  70
    32
  0
VERTEX
  8
0
  5
D3C
 10
41.0300
 20
13.4568
 30
0.000000
  70
    32
  0
VERTEX
  8
0
  5
D3D
 10
41.0385
 20
13.4671
 30
0.000000
  70
    32
  0
VERTEX
  8
0
  5
D3E
 10
41.0470
 20
13.4774
 30
0.000000
  70
    32
  0
VERTEX
  8
0
  5
D3F
 10
41.0554
 20
13.4877
 30
0.000000
  70
    32
  0
VERTEX
  8
0
  5
D40
 10
41.0639
 20
13.4980
 30
0.000000
  70
    32
  0
VERTEX
  8
0
  5
D41
 10
41.0723
 20
13.5083
 30
0.000000
  70
    32
  0
VERTEX
  8
0
  5
D42
 10
41.0808
 20
13.5186
 30
0.000000
  70
    32
  0
VERTEX
  8
0
  5
D43
 10
41.0892
 20
13.5289
 30
0.000000
  70
    32
  0
VERTEX
  8
0
  5
D44
 10
41.0977
 20
13.5393
 30
0.000000
  70
    32
  0
VERTEX
  8
0
  5
D45
 10
41.1061
 20
13.5497
 30
0.000000
  70
    32
  0
VERTEX
  8
0
  5
D46
 10
41.1146
 20
13.5600
 30
0.000000
  70
    32
  0
VERTEX
  8
0
  5
D47
 10
41.1230
 20
13.5704
 30
0.000000
  70
    32
  0
VERTEX
  8
0
  5
D48
 10
41.1314
 20
13.5808
 30
0.000000
  70
    32
  0
VERTEX
  8
0
  5
D49
 10
41.1399
 20
13.5912
 30
0.000000
  70
    32
  0
VERTEX
  8
0
  5
D4A
 10
41.1483
 20
13.6016
 30
0.000000
  70
    32
  0
VERTEX
  8
0
  5
D4B
 10
41.1567
 20
13.6121
 30
0.000000
  70
    32
  0
VERTEX
  8
0
  5
D4C
 10
41.1651
 20
13.6225
 30
0.000000
  70
    32
  0
VERTEX
  8
0
  5
D4D
 10
41.1735
 20
13.6330
 30
0.000000
  70
    32
  0
VERTEX
  8
0
  5
D4E
 10
41.1819
 20
13.6435
 30
0.000000
  70
    32
  0
VERTEX
  8
0
  5
D4F
 10
41.1903
 20
13.6539
 30
0.000000
  70
    32
  0
VERTEX
  8
0
  5
D50
 10
41.1987
 20
13.6644
 30
0.000000
  70
    32
  0
VERTEX
  8
0
  5
D51
 10
41.2071
 20
13.6749
 30
0.000000
  70
    32
  0
VERTEX
  8
0
  5
D52
 10
41.2155
 20
13.6855
 30
0.000000
  70
    32
  0
VERTEX
  8
0
  5
D53
 10
41.2239
 20
13.6960
 30
0.000000
  70
    32
  0
VERTEX
  8
0
  5
D54
 10
41.2323
 20
13.7065
 30
0.000000
  70
    32
  0
VERTEX
  8
0
  5
D55
 10
41.2407
 20
13.7171
 30
0.000000
  70
    32
  0
VERTEX
  8
0
  5
D56
 10
41.2490
 20
13.7277
 30
0.000000
  70
    32
  0
VERTEX
  8
0
  5
D57
 10
41.2574
 20
13.7383
 30
0.000000
  70
    32
  0
VERTEX
  8
0
  5
D58
 10
41.2657
 20
13.7488
 30
0.000000
  70
    32
  0
VERTEX
  8
0
  5
D59
 10
41.2741
 20
13.7595
 30
0.000000
  70
    32
  0
VERTEX
  8
0
  5
D5A
 10
41.2824
 20
13.7701
 30
0.000000
  70
    32
  0
VERTEX
  8
0
  5
D5B
 10
41.2908
 20
13.7807
 30
0.000000
  70
    32
  0
VERTEX
  8
0
  5
D5C
 10
41.2991
 20
13.7913
 30
0.000000
  70
    32
  0
VERTEX
  8
0
  5
D5D
 10
41.3074
 20
13.8020
 30
0.000000
  70
    32
  0
VERTEX
  8
0
  5
D5E
 10
41.3158
 20
13.8127
 30
0.000000
  70
    32
  0
VERTEX
  8
0
  5
D5F
 10
41.3241
 20
13.8234
 30
0.000000
  70
    32
  0
VERTEX
  8
0
  5
D60
 10
41.3324
 20
13.8340
 30
0.000000
  70
    32
  0
VERTEX
  8
0
  5
D61
 10
41.3407
 20
13.8448
 30
0.000000
  70
    32
  0
VERTEX
  8
0
  5
D62
 10
41.3490
 20
13.8555
 30
0.000000
  70
    32
  0
VERTEX
  8
0
  5
D63
 10
41.3573
 20
13.8662
 30
0.000000
  70
    32
  0
VERTEX
  8
0
  5
D64
 10
41.3655
 20
13.8769
 30
0.000000
  70
    32
  0
VERTEX
  8
0
  5
D65
 10
41.3738
 20
13.8877
 30
0.000000
  70
    32
  0
VERTEX
  8
0
  5
D66
 10
41.3821
 20
13.8985
 30
0.000000
  70
    32
  0
VERTEX
  8
0
  5
D67
 10
41.3903
 20
13.9093
 30
0.000000
  70
    32
  0
VERTEX
  8
0
  5
D68
 10
41.3986
 20
13.9201
 30
0.000000
  70
    32
  0
VERTEX
  8
0
  5
D69
 10
41.4068
 20
13.9309
 30
0.000000
  70
    32
  0
VERTEX
  8
0
  5
D6A
 10
41.4151
 20
13.9417
 30
0.000000
  70
    32
  0
VERTEX
  8
0
  5
D6B
 10
41.4233
 20
13.9525
 30
0.000000
  70
    32
  0
VERTEX
  8
0
  5
D6C
 10
41.4315
 20
13.9634
 30
0.000000
  70
    32
  0
VERTEX
  8
0
  5
D6D
 10
41.4397
 20
13.9742
 30
0.000000
  70
    32
  0
VERTEX
  8
0
  5
D6E
 10
41.4479
 20
13.9851
 30
0.000000
  70
    32
  0
VERTEX
  8
0
  5
D6F
 10
41.4561
 20
13.9960
 30
0.000000
  70
    32
  0
VERTEX
  8
0
  5
D70
 10
41.4643
 20
14.0069
 30
0.000000
  70
    32
  0
VERTEX
  8
0
  5
D71
 10
41.4725
 20
14.0178
 30
0.000000
  70
    32
  0
VERTEX
  8
0
  5
D72
 10
41.4807
 20
14.0287
 30
0.000000
  70
    32
  0
VERTEX
  8
0
  5
D73
 10
41.4889
 20
14.0396
 30
0.000000
  70
    32
  0
VERTEX
  8
0
  5
D74
 10
41.4970
 20
14.0506
 30
0.000000
  70
    32
  0
VERTEX
  8
0
  5
D75
 10
41.5052
 20
14.0615
 30
0.000000
  70
    32
  0
VERTEX
  8
0
  5
D76
 10
41.5133
 20
14.0725
 30
0.000000
  70
    32
  0
VERTEX
  8
0
  5
D77
 10
41.5214
 20
14.0835
 30
0.000000
  70
    32
  0
VERTEX
  8
0
  5
D78
 10
41.5295
 20
14.0945
 30
0.000000
  70
    32
  0
VERTEX
  8
0
  5
D79
 10
41.5377
 20
14.1055
 30
0.000000
  70
    32
  0
VERTEX
  8
0
  5
D7A
 10
41.5458
 20
14.1165
 30
0.000000
  70
    32
  0
VERTEX
  8
0
  5
D7B
 10
41.5539
 20
14.1276
 30
0.000000
  70
    32
  0
VERTEX
  8
0
  5
D7C
 10
41.5619
 20
14.1386
 30
0.000000
  70
    32
  0
VERTEX
  8
0
  5
D7D
 10
41.5700
 20
14.1497
 30
0.000000
  70
    32
  0
VERTEX
  8
0
  5
D7E
 10
41.5781
 20
14.1608
 30
0.000000
  70
    32
  0
VERTEX
  8
0
  5
D7F
 10
41.5861
 20
14.1719
 30
0.000000
  70
    32
  0
VERTEX
  8
0
  5
D80
 10
41.5942
 20
14.1830
 30
0.000000
  70
    32
  0
VERTEX
  8
0
  5
D81
 10
41.6022
 20
14.1941
 30
0.000000
  70
    32
  0
VERTEX
  8
0
  5
D82
 10
41.6102
 20
14.2052
 30
0.000000
  70
    32
  0
VERTEX
  8
0
  5
D83
 10
41.6182
 20
14.2164
 30
0.000000
  70
    32
  0
VERTEX
  8
0
  5
D84
 10
41.6262
 20
14.2275
 30
0.000000
  70
    32
  0
VERTEX
  8
0
  5
D85
 10
41.6342
 20
14.2387
 30
0.000000
  70
    32
  0
VERTEX
  8
0
  5
D86
 10
41.6422
 20
14.2499
 30
0.000000
  70
    32
  0
VERTEX
  8
0
  5
D87
 10
41.6502
 20
14.2611
 30
0.000000
  70
    32
  0
VERTEX
  8
0
  5
D88
 10
41.6581
 20
14.2723
 30
0.000000
  70
    32
  0
VERTEX
  8
0
  5
D89
 10
41.6661
 20
14.2835
 30
0.000000
  70
    32
  0
VERTEX
  8
0
  5
D8A
 10
41.6740
 20
14.2947
 30
0.000000
  70
    32
  0
VERTEX
  8
0
  5
D8B
 10
41.6820
 20
14.3060
 30
0.000000
  70
    32
  0
VERTEX
  8
0
  5
D8C
 10
41.6899
 20
14.3172
 30
0.000000
  70
    32
  0
VERTEX
  8
0
  5
D8D
 10
41.6978
 20
14.3285
 30
0.000000
  70
    32
  0
VERTEX
  8
0
  5
D8E
 10
41.7057
 20
14.3398
 30
0.000000
  70
    32
  0
VERTEX
  8
0
  5
D8F
 10
41.7135
 20
14.3511
 30
0.000000
  70
    32
  0
VERTEX
  8
0
  5
D90
 10
41.7214
 20
14.3624
 30
0.000000
  70
    32
  0
VERTEX
  8
0
  5
D91
 10
41.7293
 20
14.3738
 30
0.000000
  70
    32
  0
VERTEX
  8
0
  5
D92
 10
41.7371
 20
14.3851
 30
0.000000
  70
    32
  0
VERTEX
  8
0
  5
D93
 10
41.7450
 20
14.3965
 30
0.000000
  70
    32
  0
VERTEX
  8
0
  5
D94
 10
41.7528
 20
14.4078
 30
0.000000
  70
    32
  0
VERTEX
  8
0
  5
D95
 10
41.7606
 20
14.4192
 30
0.000000
  70
    32
  0
VERTEX
  8
0
  5
D96
 10
41.7684
 20
14.4306
 30
0.000000
  70
    32
  0
VERTEX
  8
0
  5
D97
 10
41.7762
 20
14.4420
 30
0.000000
  70
    32
  0
VERTEX
  8
0
  5
D98
 10
41.7839
 20
14.4534
 30
0.000000
  70
    32
  0
VERTEX
  8
0
  5
D99
 10
41.7917
 20
14.4649
 30
0.000000
  70
    32
  0
VERTEX
  8
0
  5
D9A
 10
41.7994
 20
14.4763
 30
0.000000
  70
    32
  0
VERTEX
  8
0
  5
D9B
 10
41.8072
 20
14.4878
 30
0.000000
  70
    32
  0
VERTEX
  8
0
  5
D9C
 10
41.8149
 20
14.4993
 30
0.000000
  70
    32
  0
VERTEX
  8
0
  5
D9D
 10
41.8226
 20
14.5108
 30
0.000000
  70
    32
  0
VERTEX
  8
0
  5
D9E
 10
41.8303
 20
14.5223
 30
0.000000
  70
    32
  0
VERTEX
  8
0
  5
D9F
 10
41.8379
 20
14.5338
 30
0.000000
  70
    32
  0
VERTEX
  8
0
  5
DA0
 10
41.8456
 20
14.5453
 30
0.000000
  70
    32
  0
VERTEX
  8
0
  5
DA1
 10
41.8533
 20
14.5569
 30
0.000000
  70
    32
  0
VERTEX
  8
0
  5
DA2
 10
41.8609
 20
14.5684
 30
0.000000
  70
    32
  0
VERTEX
  8
0
  5
DA3
 10
41.8685
 20
14.5800
 30
0.000000
  70
    32
  0
VERTEX
  8
0
  5
DA4
 10
41.8761
 20
14.5916
 30
0.000000
  70
    32
  0
VERTEX
  8
0
  5
DA5
 10
41.8837
 20
14.6032
 30
0.000000
  70
    32
  0
VERTEX
  8
0
  5
DA6
 10
41.8913
 20
14.6148
 30
0.000000
  70
    32
  0
VERTEX
  8
0
  5
DA7
 10
41.8989
 20
14.6265
 30
0.000000
  70
    32
  0
VERTEX
  8
0
  5
DA8
 10
41.9064
 20
14.6381
 30
0.000000
  70
    32
  0
VERTEX
  8
0
  5
DA9
 10
41.9139
 20
14.6498
 30
0.000000
  70
    32
  0
VERTEX
  8
0
  5
DAA
 10
41.9214
 20
14.6614
 30
0.000000
  70
    32
  0
VERTEX
  8
0
  5
DAB
 10
41.9289
 20
14.6731
 30
0.000000
  70
    32
  0
VERTEX
  8
0
  5
DAC
 10
41.9364
 20
14.6848
 30
0.000000
  70
    32
  0
VERTEX
  8
0
  5
DAD
 10
41.9439
 20
14.6965
 30
0.000000
  70
    32
  0
VERTEX
  8
0
  5
DAE
 10
41.9514
 20
14.7083
 30
0.000000
  70
    32
  0
VERTEX
  8
0
  5
DAF
 10
41.9588
 20
14.7200
 30
0.000000
  70
    32
  0
VERTEX
  8
0
  5
DB0
 10
41.9662
 20
14.7318
 30
0.000000
  70
    32
  0
VERTEX
  8
0
  5
DB1
 10
41.9736
 20
14.7436
 30
0.000000
  70
    32
  0
VERTEX
  8
0
  5
DB2
 10
41.9810
 20
14.7553
 30
0.000000
  70
    32
  0
VERTEX
  8
0
  5
DB3
 10
41.9884
 20
14.7672
 30
0.000000
  70
    32
  0
VERTEX
  8
0
  5
DB4
 10
41.9958
 20
14.7790
 30
0.000000
  70
    32
  0
VERTEX
  8
0
  5
DB5
 10
42.0031
 20
14.7908
 30
0.000000
  70
    32
  0
VERTEX
  8
0
  5
DB6
 10
42.0104
 20
14.8026
 30
0.000000
  70
    32
  0
VERTEX
  8
0
  5
DB7
 10
42.0177
 20
14.8145
 30
0.000000
  70
    32
  0
VERTEX
  8
0
  5
DB8
 10
42.0250
 20
14.8264
 30
0.000000
  70
    32
  0
VERTEX
  8
0
  5
DB9
 10
42.0323
 20
14.8383
 30
0.000000
  70
    32
  0
VERTEX
  8
0
  5
DBA
 10
42.0396
 20
14.8502
 30
0.000000
  70
    32
  0
VERTEX
  8
0
  5
DBB
 10
42.0468
 20
14.8621
 30
0.000000
  70
    32
  0
VERTEX
  8
0
  5
DBC
 10
42.0540
 20
14.8740
 30
0.000000
  70
    32
  0
VERTEX
  8
0
  5
DBD
 10
42.0612
 20
14.8860
 30
0.000000
  70
    32
  0
VERTEX
  8
0
  5
DBE
 10
42.0684
 20
14.8979
 30
0.000000
  70
    32
  0
VERTEX
  8
0
  5
DBF
 10
42.0756
 20
14.9099
 30
0.000000
  70
    32
  0
VERTEX
  8
0
  5
DC0
 10
42.0827
 20
14.9219
 30
0.000000
  70
    32
  0
VERTEX
  8
0
  5
DC1
 10
42.0899
 20
14.9339
 30
0.000000
  70
    32
  0
VERTEX
  8
0
  5
DC2
 10
42.0970
 20
14.9459
 30
0.000000
  70
    32
  0
VERTEX
  8
0
  5
DC3
 10
42.1041
 20
14.9580
 30
0.000000
  70
    32
  0
VERTEX
  8
0
  5
DC4
 10
42.1111
 20
14.9700
 30
0.000000
  70
    32
  0
VERTEX
  8
0
  5
DC5
 10
42.1182
 20
14.9821
 30
0.000000
  70
    32
  0
VERTEX
  8
0
  5
DC6
 10
42.1252
 20
14.9942
 30
0.000000
  70
    32
  0
VERTEX
  8
0
  5
DC7
 10
42.1323
 20
15.0063
 30
0.000000
  70
    32
  0
VERTEX
  8
0
  5
DC8
 10
42.1393
 20
15.0184
 30
0.000000
  70
    32
  0
VERTEX
  8
0
  5
DC9
 10
42.1462
 20
15.0305
 30
0.000000
  70
    32
  0
VERTEX
  8
0
  5
DCA
 10
42.1532
 20
15.0427
 30
0.000000
  70
    32
  0
VERTEX
  8
0
  5
DCB
 10
42.1601
 20
15.0548
 30
0.000000
  70
    32
  0
VERTEX
  8
0
  5
DCC
 10
42.1671
 20
15.0670
 30
0.000000
  70
    32
  0
VERTEX
  8
0
  5
DCD
 10
42.1740
 20
15.0792
 30
0.000000
  70
    32
  0
VERTEX
  8
0
  5
DCE
 10
42.1809
 20
15.0914
 30
0.000000
  70
    32
  0
VERTEX
  8
0
  5
DCF
 10
42.1877
 20
15.1036
 30
0.000000
  70
    32
  0
VERTEX
  8
0
  5
DD0
 10
42.1946
 20
15.1158
 30
0.000000
  70
    32
  0
VERTEX
  8
0
  5
DD1
 10
42.2014
 20
15.1281
 30
0.000000
  70
    32
  0
VERTEX
  8
0
  5
DD2
 10
42.2082
 20
15.1403
 30
0.000000
  70
    32
  0
VERTEX
  8
0
  5
DD3
 10
42.2150
 20
15.1526
 30
0.000000
  70
    32
  0
VERTEX
  8
0
  5
DD4
 10
42.2217
 20
15.1649
 30
0.000000
  70
    32
  0
VERTEX
  8
0
  5
DD5
 10
42.2285
 20
15.1772
 30
0.000000
  70
    32
  0
VERTEX
  8
0
  5
DD6
 10
42.2352
 20
15.1895
 30
0.000000
  70
    32
  0
VERTEX
  8
0
  5
DD7
 10
42.2419
 20
15.2019
 30
0.000000
  70
    32
  0
VERTEX
  8
0
  5
DD8
 10
42.2486
 20
15.2142
 30
0.000000
  70
    32
  0
VERTEX
  8
0
  5
DD9
 10
42.2552
 20
15.2266
 30
0.000000
  70
    32
  0
VERTEX
  8
0
  5
DDA
 10
42.2619
 20
15.2390
 30
0.000000
  70
    32
  0
VERTEX
  8
0
  5
DDB
 10
42.2685
 20
15.2514
 30
0.000000
  70
    32
  0
VERTEX
  8
0
  5
DDC
 10
42.2751
 20
15.2638
 30
0.000000
  70
    32
  0
VERTEX
  8
0
  5
DDD
 10
42.2817
 20
15.2763
 30
0.000000
  70
    32
  0
VERTEX
  8
0
  5
DDE
 10
42.2882
 20
15.2887
 30
0.000000
  70
    32
  0
VERTEX
  8
0
  5
DDF
 10
42.2947
 20
15.3012
 30
0.000000
  70
    32
  0
VERTEX
  8
0
  5
DE0
 10
42.3012
 20
15.3136
 30
0.000000
  70
    32
  0
VERTEX
  8
0
  5
DE1
 10
42.3077
 20
15.3261
 30
0.000000
  70
    32
  0
VERTEX
  8
0
  5
DE2
 10
42.3142
 20
15.3387
 30
0.000000
  70
    32
  0
VERTEX
  8
0
  5
DE3
 10
42.3206
 20
15.3512
 30
0.000000
  70
    32
  0
VERTEX
  8
0
  5
DE4
 10
42.3270
 20
15.3637
 30
0.000000
  70
    32
  0
VERTEX
  8
0
  5
DE5
 10
42.3334
 20
15.3763
 30
0.000000
  70
    32
  0
VERTEX
  8
0
  5
DE6
 10
42.3398
 20
15.3889
 30
0.000000
  70
    32
  0
VERTEX
  8
0
  5
DE7
 10
42.3462
 20
15.4014
 30
0.000000
  70
    32
  0
VERTEX
  8
0
  5
DE8
 10
42.3525
 20
15.4141
 30
0.000000
  70
    32
  0
VERTEX
  8
0
  5
DE9
 10
42.3588
 20
15.4267
 30
0.000000
  70
    32
  0
VERTEX
  8
0
  5
DEA
 10
42.3651
 20
15.4393
 30
0.000000
  70
    32
  0
VERTEX
  8
0
  5
DEB
 10
42.3713
 20
15.4520
 30
0.000000
  70
    32
  0
VERTEX
  8
0
  5
DEC
 10
42.3775
 20
15.4646
 30
0.000000
  70
    32
  0
VERTEX
  8
0
  5
DED
 10
42.3837
 20
15.4773
 30
0.000000
  70
    32
  0
VERTEX
  8
0
  5
DEE
 10
42.3899
 20
15.4900
 30
0.000000
  70
    32
  0
VERTEX
  8
0
  5
DEF
 10
42.3961
 20
15.5027
 30
0.000000
  70
    32
  0
VERTEX
  8
0
  5
DF0
 10
42.4022
 20
15.5155
 30
0.000000
  70
    32
  0
VERTEX
  8
0
  5
DF1
 10
42.4083
 20
15.5282
 30
0.000000
  70
    32
  0
VERTEX
  8
0
  5
DF2
 10
42.4144
 20
15.5410
 30
0.000000
  70
    32
  0
VERTEX
  8
0
  5
DF3
 10
42.4205
 20
15.5538
 30
0.000000
  70
    32
  0
VERTEX
  8
0
  5
DF4
 10
42.4265
 20
15.5666
 30
0.000000
  70
    32
  0
VERTEX
  8
0
  5
DF5
 10
42.4325
 20
15.5794
 30
0.000000
  70
    32
  0
VERTEX
  8
0
  5
DF6
 10
42.4385
 20
15.5922
 30
0.000000
  70
    32
  0
VERTEX
  8
0
  5
DF7
 10
42.4444
 20
15.6051
 30
0.000000
  70
    32
  0
VERTEX
  8
0
  5
DF8
 10
42.4504
 20
15.6179
 30
0.000000
  70
    32
  0
VERTEX
  8
0
  5
DF9
 10
42.4563
 20
15.6308
 30
0.000000
  70
    32
  0
VERTEX
  8
0
  5
DFA
 10
42.4622
 20
15.6437
 30
0.000000
  70
    32
  0
VERTEX
  8
0
  5
DFB
 10
42.4680
 20
15.6566
 30
0.000000
  70
    32
  0
VERTEX
  8
0
  5
DFC
 10
42.4738
 20
15.6696
 30
0.000000
  70
    32
  0
VERTEX
  8
0
  5
DFD
 10
42.4796
 20
15.6825
 30
0.000000
  70
    32
  0
VERTEX
  8
0
  5
DFE
 10
42.4854
 20
15.6955
 30
0.000000
  70
    32
  0
VERTEX
  8
0
  5
DFF
 10
42.4912
 20
15.7085
 30
0.000000
  70
    32
  0
VERTEX
  8
0
  5
E00
 10
42.4969
 20
15.7215
 30
0.000000
  70
    32
  0
VERTEX
  8
0
  5
E01
 10
42.5026
 20
15.7345
 30
0.000000
  70
    32
  0
VERTEX
  8
0
  5
E02
 10
42.5082
 20
15.7475
 30
0.000000
  70
    32
  0
VERTEX
  8
0
  5
E03
 10
42.5139
 20
15.7606
 30
0.000000
  70
    32
  0
VERTEX
  8
0
  5
E04
 10
42.5195
 20
15.7736
 30
0.000000
  70
    32
  0
VERTEX
  8
0
  5
E05
 10
42.5251
 20
15.7867
 30
0.000000
  70
    32
  0
VERTEX
  8
0
  5
E06
 10
42.5306
 20
15.7998
 30
0.000000
  70
    32
  0
VERTEX
  8
0
  5
E07
 10
42.5361
 20
15.8129
 30
0.000000
  70
    32
  0
VERTEX
  8
0
  5
E08
 10
42.5416
 20
15.8260
 30
0.000000
  70
    32
  0
VERTEX
  8
0
  5
E09
 10
42.5471
 20
15.8392
 30
0.000000
  70
    32
  0
VERTEX
  8
0
  5
E0A
 10
42.5525
 20
15.8524
 30
0.000000
  70
    32
  0
VERTEX
  8
0
  5
E0B
 10
42.5579
 20
15.8655
 30
0.000000
  70
    32
  0
VERTEX
  8
0
  5
E0C
 10
42.5633
 20
15.8787
 30
0.000000
  70
    32
  0
VERTEX
  8
0
  5
E0D
 10
42.5687
 20
15.8919
 30
0.000000
  70
    32
  0
VERTEX
  8
0
  5
E0E
 10
42.5740
 20
15.9052
 30
0.000000
  70
    32
  0
VERTEX
  8
0
  5
E0F
 10
42.5793
 20
15.9184
 30
0.000000
  70
    32
  0
VERTEX
  8
0
  5
E10
 10
42.5846
 20
15.9317
 30
0.000000
  70
    32
  0
VERTEX
  8
0
  5
E11
 10
42.5898
 20
15.9450
 30
0.000000
  70
    32
  0
VERTEX
  8
0
  5
E12
 10
42.5950
 20
15.9583
 30
0.000000
  70
    32
  0
VERTEX
  8
0
  5
E13
 10
42.6002
 20
15.9716
 30
0.000000
  70
    32
  0
VERTEX
  8
0
  5
E14
 10
42.6053
 20
15.9849
 30
0.000000
  70
    32
  0
VERTEX
  8
0
  5
E15
 10
42.6104
 20
15.9982
 30
0.000000
  70
    32
  0
VERTEX
  8
0
  5
E16
 10
42.6155
 20
16.0116
 30
0.000000
  70
    32
  0
VERTEX
  8
0
  5
E17
 10
42.6205
 20
16.0250
 30
0.000000
  70
    32
  0
VERTEX
  8
0
  5
E18
 10
42.6256
 20
16.0384
 30
0.000000
  70
    32
  0
VERTEX
  8
0
  5
E19
 10
42.6306
 20
16.0518
 30
0.000000
  70
    32
  0
VERTEX
  8
0
  5
E1A
 10
42.6355
 20
16.0652
 30
0.000000
  70
    32
  0
VERTEX
  8
0
  5
E1B
 10
42.6404
 20
16.0787
 30
0.000000
  70
    32
  0
VERTEX
  8
0
  5
E1C
 10
42.6453
 20
16.0922
 30
0.000000
  70
    32
  0
VERTEX
  8
0
  5
E1D
 10
42.6502
 20
16.1056
 30
0.000000
  70
    32
  0
VERTEX
  8
0
  5
E1E
 10
42.6550
 20
16.1191
 30
0.000000
  70
    32
  0
VERTEX
  8
0
  5
E1F
 10
42.6598
 20
16.1326
 30
0.000000
  70
    32
  0
VERTEX
  8
0
  5
E20
 10
42.6646
 20
16.1462
 30
0.000000
  70
    32
  0
VERTEX
  8
0
  5
E21
 10
42.6693
 20
16.1597
 30
0.000000
  70
    32
  0
VERTEX
  8
0
  5
E22
 10
42.6740
 20
16.1733
 30
0.000000
  70
    32
  0
VERTEX
  8
0
  5
E23
 10
42.6787
 20
16.1869
 30
0.000000
  70
    32
  0
VERTEX
  8
0
  5
E24
 10
42.6833
 20
16.2005
 30
0.000000
  70
    32
  0
VERTEX
  8
0
  5
E25
 10
42.6879
 20
16.2141
 30
0.000000
  70
    32
  0
VERTEX
  8
0
  5
E26
 10
42.6925
 20
16.2277
 30
0.000000
  70
    32
  0
VERTEX
  8
0
  5
E27
 10
42.6970
 20
16.2414
 30
0.000000
  70
    32
  0
VERTEX
  8
0
  5
E28
 10
42.7015
 20
16.2551
 30
0.000000
  70
    32
  0
VERTEX
  8
0
  5
E29
 10
42.7060
 20
16.2687
 30
0.000000
  70
    32
  0
VERTEX
  8
0
  5
E2A
 10
42.7104
 20
16.2824
 30
0.000000
  70
    32
  0
VERTEX
  8
0
  5
E2B
 10
42.7148
 20
16.2962
 30
0.000000
  70
    32
  0
VERTEX
  8
0
  5
E2C
 10
42.7192
 20
16.3099
 30
0.000000
  70
    32
  0
VERTEX
  8
0
  5
E2D
 10
42.7235
 20
16.3237
 30
0.000000
  70
    32
  0
VERTEX
  8
0
  5
E2E
 10
42.7278
 20
16.3374
 30
0.000000
  70
    32
  0
VERTEX
  8
0
  5
E2F
 10
42.7320
 20
16.3512
 30
0.000000
  70
    32
  0
VERTEX
  8
0
  5
E30
 10
42.7363
 20
16.3650
 30
0.000000
  70
    32
  0
VERTEX
  8
0
  5
E31
 10
42.7405
 20
16.3788
 30
0.000000
  70
    32
  0
VERTEX
  8
0
  5
E32
 10
42.7446
 20
16.3927
 30
0.000000
  70
    32
  0
VERTEX
  8
0
  5
E33
 10
42.7487
 20
16.4065
 30
0.000000
  70
    32
  0
VERTEX
  8
0
  5
E34
 10
42.7528
 20
16.4204
 30
0.000000
  70
    32
  0
VERTEX
  8
0
  5
E35
 10
42.7569
 20
16.4343
 30
0.000000
  70
    32
  0
VERTEX
  8
0
  5
E36
 10
42.7609
 20
16.4482
 30
0.000000
  70
    32
  0
VERTEX
  8
0
  5
E37
 10
42.7648
 20
16.4622
 30
0.000000
  70
    32
  0
VERTEX
  8
0
  5
E38
 10
42.7688
 20
16.4761
 30
0.000000
  70
    32
  0
VERTEX
  8
0
  5
E39
 10
42.7727
 20
16.4901
 30
0.000000
  70
    32
  0
VERTEX
  8
0
  5
E3A
 10
42.7765
 20
16.5040
 30
0.000000
  70
    32
  0
VERTEX
  8
0
  5
E3B
 10
42.7804
 20
16.5180
 30
0.000000
  70
    32
  0
VERTEX
  8
0
  5
E3C
 10
42.7841
 20
16.5320
 30
0.000000
  70
    32
  0
VERTEX
  8
0
  5
E3D
 10
42.7879
 20
16.5461
 30
0.000000
  70
    32
  0
VERTEX
  8
0
  5
E3E
 10
42.7916
 20
16.5601
 30
0.000000
  70
    32
  0
VERTEX
  8
0
  5
E3F
 10
42.7953
 20
16.5742
 30
0.000000
  70
    32
  0
VERTEX
  8
0
  5
E40
 10
42.7989
 20
16.5883
 30
0.000000
  70
    32
  0
VERTEX
  8
0
  5
E41
 10
42.8025
 20
16.6024
 30
0.000000
  70
    32
  0
VERTEX
  8
0
  5
E42
 10
42.8061
 20
16.6165
 30
0.000000
  70
    32
  0
VERTEX
  8
0
  5
E43
 10
42.8096
 20
16.6306
 30
0.000000
  70
    32
  0
VERTEX
  8
0
  5
E44
 10
42.8131
 20
16.6448
 30
0.000000
  70
    32
  0
VERTEX
  8
0
  5
E45
 10
42.8165
 20
16.6589
 30
0.000000
  70
    32
  0
VERTEX
  8
0
  5
E46
 10
42.8199
 20
16.6731
 30
0.000000
  70
    32
  0
VERTEX
  8
0
  5
E47
 10
42.8233
 20
16.6873
 30
0.000000
  70
    32
  0
VERTEX
  8
0
  5
E48
 10
42.8266
 20
16.7015
 30
0.000000
  70
    32
  0
VERTEX
  8
0
  5
E49
 10
42.8299
 20
16.7157
 30
0.000000
  70
    32
  0
VERTEX
  8
0
  5
E4A
 10
42.8331
 20
16.7300
 30
0.000000
  70
    32
  0
VERTEX
  8
0
  5
E4B
 10
42.8363
 20
16.7442
 30
0.000000
  70
    32
  0
VERTEX
  8
0
  5
E4C
 10
42.8395
 20
16.7585
 30
0.000000
  70
    32
  0
VERTEX
  8
0
  5
E4D
 10
42.8426
 20
16.7728
 30
0.000000
  70
    32
  0
VERTEX
  8
0
  5
E4E
 10
42.8457
 20
16.7871
 30
0.000000
  70
    32
  0
VERTEX
  8
0
  5
E4F
 10
42.8487
 20
16.8015
 30
0.000000
  70
    32
  0
VERTEX
  8
0
  5
E50
 10
42.8517
 20
16.8158
 30
0.000000
  70
    32
  0
VERTEX
  8
0
  5
E51
 10
42.8547
 20
16.8302
 30
0.000000
  70
    32
  0
VERTEX
  8
0
  5
E52
 10
42.8576
 20
16.8445
 30
0.000000
  70
    32
  0
VERTEX
  8
0
  5
E53
 10
42.8605
 20
16.8589
 30
0.000000
  70
    32
  0
VERTEX
  8
0
  5
E54
 10
42.8633
 20
16.8733
 30
0.000000
  70
    32
  0
VERTEX
  8
0
  5
E55
 10
42.8661
 20
16.8878
 30
0.000000
  70
    32
  0
VERTEX
  8
0
  5
E56
 10
42.8688
 20
16.9022
 30
0.000000
  70
    32
  0
VERTEX
  8
0
  5
E57
 10
42.8716
 20
16.9166
 30
0.000000
  70
    32
  0
VERTEX
  8
0
  5
E58
 10
42.8742
 20
16.9311
 30
0.000000
  70
    32
  0
VERTEX
  8
0
  5
E59
 10
42.8768
 20
16.9456
 30
0.000000
  70
    32
  0
VERTEX
  8
0
  5
E5A
 10
42.8794
 20
16.9601
 30
0.000000
  70
    32
  0
VERTEX
  8
0
  5
E5B
 10
42.8819
 20
16.9746
 30
0.000000
  70
    32
  0
VERTEX
  8
0
  5
E5C
 10
42.8844
 20
16.9892
 30
0.000000
  70
    32
  0
VERTEX
  8
0
  5
E5D
 10
42.8869
 20
17.0037
 30
0.000000
  70
    32
  0
VERTEX
  8
0
  5
E5E
 10
42.8893
 20
17.0183
 30
0.000000
  70
    32
  0
VERTEX
  8
0
  5
E5F
 10
42.8916
 20
17.0328
 30
0.000000
  70
    32
  0
VERTEX
  8
0
  5
E60
 10
42.8940
 20
17.0474
 30
0.000000
  70
    32
  0
VERTEX
  8
0
  5
E61
 10
42.8962
 20
17.0620
 30
0.000000
  70
    32
  0
VERTEX
  8
0
  5
E62
 10
42.8985
 20
17.0767
 30
0.000000
  70
    32
  0
VERTEX
  8
0
  5
E63
 10
42.9006
 20
17.0913
 30
0.000000
  70
    32
  0
VERTEX
  8
0
  5
E64
 10
42.9028
 20
17.1060
 30
0.000000
  70
    32
  0
VERTEX
  8
0
  5
E65
 10
42.9049
 20
17.1206
 30
0.000000
  70
    32
  0
VERTEX
  8
0
  5
E66
 10
42.9069
 20
17.1353
 30
0.000000
  70
    32
  0
VERTEX
  8
0
  5
E67
 10
42.9089
 20
17.1500
 30
0.000000
  70
    32
  0
VERTEX
  8
0
  5
E68
 10
42.9109
 20
17.1647
 30
0.000000
  70
    32
  0
VERTEX
  8
0
  5
E69
 10
42.9128
 20
17.1795
 30
0.000000
  70
    32
  0
VERTEX
  8
0
  5
E6A
 10
42.9146
 20
17.1942
 30
0.000000
  70
    32
  0
VERTEX
  8
0
  5
E6B
 10
42.9165
 20
17.2090
 30
0.000000
  70
    32
  0
VERTEX
  8
0
  5
E6C
 10
42.9182
 20
17.2237
 30
0.000000
  70
    32
  0
VERTEX
  8
0
  5
E6D
 10
42.9200
 20
17.2385
 30
0.000000
  70
    32
  0
VERTEX
  8
0
  5
E6E
 10
42.9216
 20
17.2533
 30
0.000000
  70
    32
  0
SEQEND
  8
0
  5
E6F
  0
ARC
  5
225
  8
0
 10
40.169508949988078
 20
11.749773402692419
 30
0.0
 40
0.5
 50
135.83499348212021
 51
270.0
  0
ARC
  5
226
  8
0
 10
43.418541230053961
 20
17.197845382016681
 30
0.0
 40
0.5
 50
93.315912438019524
 51
173.62940785780199
  0
LINE
  5
227
  8
0
 10
22.449999951397331
 20
-0.000000070607598
 30
0.0
 11
23.349999951398789
 21
-0.000000070607598
 31
0.0
  0
LINE
  5
228
  8
0
 10
16.649999951398058
 20
-0.000000070607598
 30
0.0
 11
17.549999951395868
 21
-0.000000070607598
 31
0.0
  0
LINE
  5
229
  8
0
 10
17.549999951395868
 20
-0.000000070607598
 30
0.0
 11
22.449999951397331
 21
-0.000000070607598
 31
0.0
  0
LINE
  5
22A
  8
0
 10
17.7499999513966
 20
3.103872533782237
 30
0.0
 11
22.2499999513966
 21
3.103872533782237
 31
0.0
  0
LINE
  5
22B
  8
0
 10
16.2499999513966
 20
4.603872533782237
 30
0.0
 11
23.7499999513966
 21
4.603872533782237
 31
0.0
  0
LINE
  5
22C
  8
0
 10
-0.0000000486033969
 20
10.34977340269233
 30
0.0
 11
-0.0000000486033969
 21
18.603872533782241
 31
0.0
  0
LINE
  5
22D
  8
0
 10
0.8999999513980583
 20
11.69977340269236
 30
0.0
 11
0.8999999513980583
 21
17.182414295523809
 31
0.0
  0
ARC
  5
22E
  8
0
 10
1.2499999513966029
 20
17.182414295523809
 30
0.0
 40
0.35
 50
0.0
 51
180.0
  0
ARC
  5
22F
  8
0
 10
1.2499999513966029
 20
11.69977340269236
 30
0.0
 40
0.35
 50
180.0
 51
0.0
  0
POLYLINE
  8
0
  5
E70
  66
     1
 10
0.000000
 20
0.000000
 30
0.000000
  70
     8
  0
VERTEX
  8
0
  5
E71
 10
11.1410
 20
16.6075
 30
0.000000
  70
    32
  0
VERTEX
  8
0
  5
E72
 10
11.1463
 20
16.5551
 30
0.000000
  70
    32
  0
VERTEX
  8
0
  5
E73
 10
11.1515
 20
16.5028
 30
0.000000
  70
    32
  0
VERTEX
  8
0
  5
E74
 10
11.1568
 20
16.4505
 30
0.000000
  70
    32
  0
VERTEX
  8
0
  5
E75
 10
11.1621
 20
16.3981
 30
0.000000
  70
    32
  0
VERTEX
  8
0
  5
E76
 10
11.1674
 20
16.3458
 30
0.000000
  70
    32
  0
VERTEX
  8
0
  5
E77
 10
11.1727
 20
16.2934
 30
0.000000
  70
    32
  0
VERTEX
  8
0
  5
E78
 10
11.1780
 20
16.2411
 30
0.000000
  70
    32
  0
VERTEX
  8
0
  5
E79
 10
11.1833
 20
16.1888
 30
0.000000
  70
    32
  0
VERTEX
  8
0
  5
E7A
 10
11.1887
 20
16.1364
 30
0.000000
  70
    32
  0
VERTEX
  8
0
  5
E7B
 10
11.1940
 20
16.0841
 30
0.000000
  70
    32
  0
VERTEX
  8
0
  5
E7C
 10
11.1993
 20
16.0317
 30
0.000000
  70
    32
  0
VERTEX
  8
0
  5
E7D
 10
11.2047
 20
15.9794
 30
0.000000
  70
    32
  0
VERTEX
  8
0
  5
E7E
 10
11.2101
 20
15.9271
 30
0.000000
  70
    32
  0
VERTEX
  8
0
  5
E7F
 10
11.2154
 20
15.8747
 30
0.000000
  70
    32
  0
VERTEX
  8
0
  5
E80
 10
11.2208
 20
15.8224
 30
0.000000
  70
    32
  0
VERTEX
  8
0
  5
E81
 10
11.2262
 20
15.7701
 30
0.000000
  70
    32
  0
VERTEX
  8
0
  5
E82
 10
11.2317
 20
15.7178
 30
0.000000
  70
    32
  0
VERTEX
  8
0
  5
E83
 10
11.2371
 20
15.6654
 30
0.000000
  70
    32
  0
VERTEX
  8
0
  5
E84
 10
11.2426
 20
15.6131
 30
0.000000
  70
    32
  0
VERTEX
  8
0
  5
E85
 10
11.2481
 20
15.5608
 30
0.000000
  70
    32
  0
VERTEX
  8
0
  5
E86
 10
11.2536
 20
15.5085
 30
0.000000
  70
    32
  0
VERTEX
  8
0
  5
E87
 10
11.2591
 20
15.4562
 30
0.000000
  70
    32
  0
VERTEX
  8
0
  5
E88
 10
11.2646
 20
15.4039
 30
0.000000
  70
    32
  0
VERTEX
  8
0
  5
E89
 10
11.2702
 20
15.3516
 30
0.000000
  70
    32
  0
VERTEX
  8
0
  5
E8A
 10
11.2758
 20
15.2993
 30
0.000000
  70
    32
  0
VERTEX
  8
0
  5
E8B
 10
11.2814
 20
15.2470
 30
0.000000
  70
    32
  0
VERTEX
  8
0
  5
E8C
 10
11.2871
 20
15.1947
 30
0.000000
  70
    32
  0
VERTEX
  8
0
  5
E8D
 10
11.2928
 20
15.1424
 30
0.000000
  70
    32
  0
VERTEX
  8
0
  5
E8E
 10
11.2985
 20
15.0901
 30
0.000000
  70
    32
  0
VERTEX
  8
0
  5
E8F
 10
11.3042
 20
15.0378
 30
0.000000
  70
    32
  0
VERTEX
  8
0
  5
E90
 10
11.3100
 20
14.9855
 30
0.000000
  70
    32
  0
VERTEX
  8
0
  5
E91
 10
11.3158
 20
14.9332
 30
0.000000
  70
    32
  0
VERTEX
  8
0
  5
E92
 10
11.3216
 20
14.8810
 30
0.000000
  70
    32
  0
VERTEX
  8
0
  5
E93
 10
11.3275
 20
14.8287
 30
0.000000
  70
    32
  0
VERTEX
  8
0
  5
E94
 10
11.3334
 20
14.7764
 30
0.000000
  70
    32
  0
VERTEX
  8
0
  5
E95
 10
11.3394
 20
14.7242
 30
0.000000
  70
    32
  0
VERTEX
  8
0
  5
E96
 10
11.3453
 20
14.6719
 30
0.000000
  70
    32
  0
VERTEX
  8
0
  5
E97
 10
11.3514
 20
14.6197
 30
0.000000
  70
    32
  0
VERTEX
  8
0
  5
E98
 10
11.3574
 20
14.5674
 30
0.000000
  70
    32
  0
VERTEX
  8
0
  5
E99
 10
11.3635
 20
14.5152
 30
0.000000
  70
    32
  0
VERTEX
  8
0
  5
E9A
 10
11.3696
 20
14.4629
 30
0.000000
  70
    32
  0
VERTEX
  8
0
  5
E9B
 10
11.3758
 20
14.4107
 30
0.000000
  70
    32
  0
VERTEX
  8
0
  5
E9C
 10
11.3821
 20
14.3585
 30
0.000000
  70
    32
  0
VERTEX
  8
0
  5
E9D
 10
11.3883
 20
14.3063
 30
0.000000
  70
    32
  0
VERTEX
  8
0
  5
E9E
 10
11.3947
 20
14.2541
 30
0.000000
  70
    32
  0
VERTEX
  8
0
  5
E9F
 10
11.4010
 20
14.2018
 30
0.000000
  70
    32
  0
VERTEX
  8
0
  5
EA0
 10
11.4074
 20
14.1496
 30
0.000000
  70
    32
  0
VERTEX
  8
0
  5
EA1
 10
11.4139
 20
14.0974
 30
0.000000
  70
    32
  0
VERTEX
  8
0
  5
EA2
 10
11.4204
 20
14.0453
 30
0.000000
  70
    32
  0
VERTEX
  8
0
  5
EA3
 10
11.4270
 20
13.9931
 30
0.000000
  70
    32
  0
VERTEX
  8
0
  5
EA4
 10
11.4336
 20
13.9409
 30
0.000000
  70
    32
  0
VERTEX
  8
0
  5
EA5
 10
11.4403
 20
13.8887
 30
0.000000
  70
    32
  0
VERTEX
  8
0
  5
EA6
 10
11.4470
 20
13.8366
 30
0.000000
  70
    32
  0
VERTEX
  8
0
  5
EA7
 10
11.4538
 20
13.7844
 30
0.000000
  70
    32
  0
VERTEX
  8
0
  5
EA8
 10
11.4606
 20
13.7323
 30
0.000000
  70
    32
  0
VERTEX
  8
0
  5
EA9
 10
11.4675
 20
13.6801
 30
0.000000
  70
    32
  0
VERTEX
  8
0
  5
EAA
 10
11.4744
 20
13.6280
 30
0.000000
  70
    32
  0
VERTEX
  8
0
  5
EAB
 10
11.4814
 20
13.5759
 30
0.000000
  70
    32
  0
VERTEX
  8
0
  5
EAC
 10
11.4884
 20
13.5237
 30
0.000000
  70
    32
  0
VERTEX
  8
0
  5
EAD
 10
11.4955
 20
13.4716
 30
0.000000
  70
    32
  0
VERTEX
  8
0
  5
EAE
 10
11.5027
 20
13.4195
 30
0.000000
  70
    32
  0
VERTEX
  8
0
  5
EAF
 10
11.5099
 20
13.3674
 30
0.000000
  70
    32
  0
VERTEX
  8
0
  5
EB0
 10
11.5172
 20
13.3153
 30
0.000000
  70
    32
  0
VERTEX
  8
0
  5
EB1
 10
11.5245
 20
13.2632
 30
0.000000
  70
    32
  0
VERTEX
  8
0
  5
EB2
 10
11.5319
 20
13.2112
 30
0.000000
  70
    32
  0
VERTEX
  8
0
  5
EB3
 10
11.5393
 20
13.1591
 30
0.000000
  70
    32
  0
VERTEX
  8
0
  5
EB4
 10
11.5468
 20
13.1070
 30
0.000000
  70
    32
  0
VERTEX
  8
0
  5
EB5
 10
11.5543
 20
13.0550
 30
0.000000
  70
    32
  0
VERTEX
  8
0
  5
EB6
 10
11.5620
 20
13.0029
 30
0.000000
  70
    32
  0
VERTEX
  8
0
  5
EB7
 10
11.5696
 20
12.9509
 30
0.000000
  70
    32
  0
VERTEX
  8
0
  5
EB8
 10
11.5773
 20
12.8989
 30
0.000000
  70
    32
  0
VERTEX
  8
0
  5
EB9
 10
11.5851
 20
12.8469
 30
0.000000
  70
    32
  0
VERTEX
  8
0
  5
EBA
 10
11.5929
 20
12.7948
 30
0.000000
  70
    32
  0
VERTEX
  8
0
  5
EBB
 10
11.6008
 20
12.7428
 30
0.000000
  70
    32
  0
VERTEX
  8
0
  5
EBC
 10
11.6088
 20
12.6908
 30
0.000000
  70
    32
  0
VERTEX
  8
0
  5
EBD
 10
11.6168
 20
12.6389
 30
0.000000
  70
    32
  0
VERTEX
  8
0
  5
EBE
 10
11.6249
 20
12.5869
 30
0.000000
  70
    32
  0
VERTEX
  8
0
  5
EBF
 10
11.6330
 20
12.5349
 30
0.000000
  70
    32
  0
VERTEX
  8
0
  5
EC0
 10
11.6412
 20
12.4830
 30
0.000000
  70
    32
  0
VERTEX
  8
0
  5
EC1
 10
11.6494
 20
12.4310
 30
0.000000
  70
    32
  0
VERTEX
  8
0
  5
EC2
 10
11.6577
 20
12.3791
 30
0.000000
  70
    32
  0
VERTEX
  8
0
  5
EC3
 10
11.6661
 20
12.3271
 30
0.000000
  70
    32
  0
VERTEX
  8
0
  5
EC4
 10
11.6745
 20
12.2752
 30
0.000000
  70
    32
  0
VERTEX
  8
0
  5
EC5
 10
11.6830
 20
12.2233
 30
0.000000
  70
    32
  0
VERTEX
  8
0
  5
EC6
 10
11.6916
 20
12.1714
 30
0.000000
  70
    32
  0
VERTEX
  8
0
  5
EC7
 10
11.7002
 20
12.1195
 30
0.000000
  70
    32
  0
VERTEX
  8
0
  5
EC8
 10
11.7088
 20
12.0676
 30
0.000000
  70
    32
  0
VERTEX
  8
0
  5
EC9
 10
11.7176
 20
12.0157
 30
0.000000
  70
    32
  0
VERTEX
  8
0
  5
ECA
 10
11.7264
 20
11.9638
 30
0.000000
  70
    32
  0
VERTEX
  8
0
  5
ECB
 10
11.7352
 20
11.9120
 30
0.000000
  70
    32
  0
VERTEX
  8
0
  5
ECC
 10
11.7441
 20
11.8601
 30
0.000000
  70
    32
  0
VERTEX
  8
0
  5
ECD
 10
11.7531
 20
11.8083
 30
0.000000
  70
    32
  0
VERTEX
  8
0
  5
ECE
 10
11.7622
 20
11.7565
 30
0.000000
  70
    32
  0
VERTEX
  8
0
  5
ECF
 10
11.7713
 20
11.7046
 30
0.000000
  70
    32
  0
VERTEX
  8
0
  5
ED0
 10
11.7804
 20
11.6528
 30
0.000000
  70
    32
  0
VERTEX
  8
0
  5
ED1
 10
11.7897
 20
11.6010
 30
0.000000
  70
    32
  0
VERTEX
  8
0
  5
ED2
 10
11.7990
 20
11.5492
 30
0.000000
  70
    32
  0
VERTEX
  8
0
  5
ED3
 10
11.8083
 20
11.4975
 30
0.000000
  70
    32
  0
VERTEX
  8
0
  5
ED4
 10
11.8177
 20
11.4457
 30
0.000000
  70
    32
  0
VERTEX
  8
0
  5
ED5
 10
11.8272
 20
11.3939
 30
0.000000
  70
    32
  0
VERTEX
  8
0
  5
ED6
 10
11.8368
 20
11.3422
 30
0.000000
  70
    32
  0
VERTEX
  8
0
  5
ED7
 10
11.8464
 20
11.2904
 30
0.000000
  70
    32
  0
VERTEX
  8
0
  5
ED8
 10
11.8561
 20
11.2387
 30
0.000000
  70
    32
  0
VERTEX
  8
0
  5
ED9
 10
11.8658
 20
11.1870
 30
0.000000
  70
    32
  0
VERTEX
  8
0
  5
EDA
 10
11.8756
 20
11.1353
 30
0.000000
  70
    32
  0
VERTEX
  8
0
  5
EDB
 10
11.8855
 20
11.0836
 30
0.000000
  70
    32
  0
VERTEX
  8
0
  5
EDC
 10
11.8955
 20
11.0319
 30
0.000000
  70
    32
  0
VERTEX
  8
0
  5
EDD
 10
11.9055
 20
10.9802
 30
0.000000
  70
    32
  0
VERTEX
  8
0
  5
EDE
 10
11.9155
 20
10.9286
 30
0.000000
  70
    32
  0
VERTEX
  8
0
  5
EDF
 10
11.9257
 20
10.8769
 30
0.000000
  70
    32
  0
VERTEX
  8
0
  5
EE0
 10
11.9359
 20
10.8253
 30
0.000000
  70
    32
  0
VERTEX
  8
0
  5
EE1
 10
11.9462
 20
10.7736
 30
0.000000
  70
    32
  0
VERTEX
  8
0
  5
EE2
 10
11.9565
 20
10.7220
 30
0.000000
  70
    32
  0
VERTEX
  8
0
  5
EE3
 10
11.9669
 20
10.6704
 30
0.000000
  70
    32
  0
VERTEX
  8
0
  5
EE4
 10
11.9774
 20
10.6188
 30
0.000000
  70
    32
  0
VERTEX
  8
0
  5
EE5
 10
11.9879
 20
10.5672
 30
0.000000
  70
    32
  0
VERTEX
  8
0
  5
EE6
 10
11.9986
 20
10.5157
 30
0.000000
  70
    32
  0
VERTEX
  8
0
  5
EE7
 10
12.0092
 20
10.4641
 30
0.000000
  70
    32
  0
VERTEX
  8
0
  5
EE8
 10
12.0200
 20
10.4125
 30
0.000000
  70
    32
  0
VERTEX
  8
0
  5
EE9
 10
12.0308
 20
10.3610
 30
0.000000
  70
    32
  0
VERTEX
  8
0
  5
EEA
 10
12.0417
 20
10.3095
 30
0.000000
  70
    32
  0
VERTEX
  8
0
  5
EEB
 10
12.0527
 20
10.2580
 30
0.000000
  70
    32
  0
VERTEX
  8
0
  5
EEC
 10
12.0637
 20
10.2065
 30
0.000000
  70
    32
  0
VERTEX
  8
0
  5
EED
 10
12.0748
 20
10.1550
 30
0.000000
  70
    32
  0
VERTEX
  8
0
  5
EEE
 10
12.0860
 20
10.1035
 30
0.000000
  70
    32
  0
VERTEX
  8
0
  5
EEF
 10
12.0972
 20
10.0520
 30
0.000000
  70
    32
  0
VERTEX
  8
0
  5
EF0
 10
12.1086
 20
10.0006
 30
0.000000
  70
    32
  0
VERTEX
  8
0
  5
EF1
 10
12.1200
 20
9.94917
 30
0.000000
  70
    32
  0
VERTEX
  8
0
  5
EF2
 10
12.1315
 20
9.89776
 30
0.000000
  70
    32
  0
VERTEX
  8
0
  5
EF3
 10
12.1430
 20
9.84637
 30
0.000000
  70
    32
  0
VERTEX
  8
0
  5
EF4
 10
12.1547
 20
9.79500
 30
0.000000
  70
    32
  0
VERTEX
  8
0
  5
EF5
 10
12.1665
 20
9.74365
 30
0.000000
  70
    32
  0
VERTEX
  8
0
  5
EF6
 10
12.1783
 20
9.69232
 30
0.000000
  70
    32
  0
VERTEX
  8
0
  5
EF7
 10
12.1903
 20
9.64102
 30
0.000000
  70
    32
  0
VERTEX
  8
0
  5
EF8
 10
12.2023
 20
9.58974
 30
0.000000
  70
    32
  0
VERTEX
  8
0
  5
EF9
 10
12.2145
 20
9.53848
 30
0.000000
  70
    32
  0
VERTEX
  8
0
  5
EFA
 10
12.2267
 20
9.48725
 30
0.000000
  70
    32
  0
VERTEX
  8
0
  5
EFB
 10
12.2391
 20
9.43604
 30
0.000000
  70
    32
  0
VERTEX
  8
0
  5
EFC
 10
12.2515
 20
9.38487
 30
0.000000
  70
    32
  0
VERTEX
  8
0
  5
EFD
 10
12.2641
 20
9.33372
 30
0.000000
  70
    32
  0
VERTEX
  8
0
  5
EFE
 10
12.2768
 20
9.28260
 30
0.000000
  70
    32
  0
VERTEX
  8
0
  5
EFF
 10
12.2896
 20
9.23151
 30
0.000000
  70
    32
  0
VERTEX
  8
0
  5
F00
 10
12.3025
 20
9.18046
 30
0.000000
  70
    32
  0
VERTEX
  8
0
  5
F01
 10
12.3155
 20
9.12944
 30
0.000000
  70
    32
  0
VERTEX
  8
0
  5
F02
 10
12.3287
 20
9.07845
 30
0.000000
  70
    32
  0
VERTEX
  8
0
  5
F03
 10
12.3419
 20
9.02749
 30
0.000000
  70
    32
  0
VERTEX
  8
0
  5
F04
 10
12.3553
 20
8.97657
 30
0.000000
  70
    32
  0
VERTEX
  8
0
  5
F05
 10
12.3689
 20
8.92569
 30
0.000000
  70
    32
  0
VERTEX
  8
0
  5
F06
 10
12.3825
 20
8.87484
 30
0.000000
  70
    32
  0
VERTEX
  8
0
  5
F07
 10
12.3963
 20
8.82404
 30
0.000000
  70
    32
  0
VERTEX
  8
0
  5
F08
 10
12.4103
 20
8.77327
 30
0.000000
  70
    32
  0
VERTEX
  8
0
  5
F09
 10
12.4243
 20
8.72254
 30
0.000000
  70
    32
  0
VERTEX
  8
0
  5
F0A
 10
12.4386
 20
8.67186
 30
0.000000
  70
    32
  0
VERTEX
  8
0
  5
F0B
 10
12.4529
 20
8.62122
 30
0.000000
  70
    32
  0
VERTEX
  8
0
  5
F0C
 10
12.4674
 20
8.57062
 30
0.000000
  70
    32
  0
VERTEX
  8
0
  5
F0D
 10
12.4821
 20
8.52006
 30
0.000000
  70
    32
  0
VERTEX
  8
0
  5
F0E
 10
12.4969
 20
8.46956
 30
0.000000
  70
    32
  0
VERTEX
  8
0
  5
F0F
 10
12.5118
 20
8.41909
 30
0.000000
  70
    32
  0
VERTEX
  8
0
  5
F10
 10
12.5269
 20
8.36868
 30
0.000000
  70
    32
  0
VERTEX
  8
0
  5
F11
 10
12.5422
 20
8.31831
 30
0.000000
  70
    32
  0
VERTEX
  8
0
  5
F12
 10
12.5576
 20
8.26800
 30
0.000000
  70
    32
  0
VERTEX
  8
0
  5
F13
 10
12.5732
 20
8.21773
 30
0.000000
  70
    32
  0
VERTEX
  8
0
  5
F14
 10
12.5889
 20
8.16751
 30
0.000000
  70
    32
  0
VERTEX
  8
0
  5
F15
 10
12.6048
 20
8.11735
 30
0.000000
  70
    32
  0
VERTEX
  8
0
  5
F16
 10
12.6209
 20
8.06724
 30
0.000000
  70
    32
  0
VERTEX
  8
0
  5
F17
 10
12.6372
 20
8.01719
 30
0.000000
  70
    32
  0
VERTEX
  8
0
  5
F18
 10
12.6536
 20
7.96719
 30
0.000000
  70
    32
  0
VERTEX
  8
0
  5
F19
 10
12.6702
 20
7.91724
 30
0.000000
  70
    32
  0
VERTEX
  8
0
  5
F1A
 10
12.6870
 20
7.86736
 30
0.000000
  70
    32
  0
VERTEX
  8
0
  5
F1B
 10
12.7040
 20
7.81753
 30
0.000000
  70
    32
  0
VERTEX
  8
0
  5
F1C
 10
12.7211
 20
7.76776
 30
0.000000
  70
    32
  0
VERTEX
  8
0
  5
F1D
 10
12.7384
 20
7.71806
 30
0.000000
  70
    32
  0
VERTEX
  8
0
  5
F1E
 10
12.7560
 20
7.66841
 30
0.000000
  70
    32
  0
VERTEX
  8
0
  5
F1F
 10
12.7737
 20
7.61883
 30
0.000000
  70
    32
  0
VERTEX
  8
0
  5
F20
 10
12.7916
 20
7.56930
 30
0.000000
  70
    32
  0
VERTEX
  8
0
  5
F21
 10
12.8097
 20
7.51985
 30
0.000000
  70
    32
  0
VERTEX
  8
0
  5
F22
 10
12.8280
 20
7.47046
 30
0.000000
  70
    32
  0
VERTEX
  8
0
  5
F23
 10
12.8465
 20
7.42113
 30
0.000000
  70
    32
  0
VERTEX
  8
0
  5
F24
 10
12.8652
 20
7.37187
 30
0.000000
  70
    32
  0
VERTEX
  8
0
  5
F25
 10
12.8841
 20
7.32268
 30
0.000000
  70
    32
  0
VERTEX
  8
0
  5
F26
 10
12.9032
 20
7.27356
 30
0.000000
  70
    32
  0
VERTEX
  8
0
  5
F27
 10
12.9225
 20
7.22452
 30
0.000000
  70
    32
  0
VERTEX
  8
0
  5
F28
 10
12.9420
 20
7.17554
 30
0.000000
  70
    32
  0
VERTEX
  8
0
  5
F29
 10
12.9618
 20
7.12664
 30
0.000000
  70
    32
  0
VERTEX
  8
0
  5
F2A
 10
12.9817
 20
7.07782
 30
0.000000
  70
    32
  0
VERTEX
  8
0
  5
F2B
 10
13.0019
 20
7.02909
 30
0.000000
  70
    32
  0
VERTEX
  8
0
  5
F2C
 10
13.0222
 20
6.98043
 30
0.000000
  70
    32
  0
VERTEX
  8
0
  5
F2D
 10
13.0428
 20
6.93186
 30
0.000000
  70
    32
  0
VERTEX
  8
0
  5
F2E
 10
13.0636
 20
6.88338
 30
0.000000
  70
    32
  0
VERTEX
  8
0
  5
F2F
 10
13.0847
 20
6.83499
 30
0.000000
  70
    32
  0
VERTEX
  8
0
  5
F30
 10
13.1059
 20
6.78669
 30
0.000000
  70
    32
  0
VERTEX
  8
0
  5
F31
 10
13.1273
 20
6.73849
 30
0.000000
  70
    32
  0
VERTEX
  8
0
  5
F32
 10
13.1490
 20
6.69038
 30
0.000000
  70
    32
  0
VERTEX
  8
0
  5
F33
 10
13.1709
 20
6.64238
 30
0.000000
  70
    32
  0
VERTEX
  8
0
  5
F34
 10
13.1930
 20
6.59447
 30
0.000000
  70
    32
  0
VERTEX
  8
0
  5
F35
 10
13.2154
 20
6.54667
 30
0.000000
  70
    32
  0
VERTEX
  8
0
  5
F36
 10
13.2379
 20
6.49898
 30
0.000000
  70
    32
  0
VERTEX
  8
0
  5
F37
 10
13.2607
 20
6.45139
 30
0.000000
  70
    32
  0
VERTEX
  8
0
  5
F38
 10
13.2837
 20
6.40391
 30
0.000000
  70
    32
  0
VERTEX
  8
0
  5
F39
 10
13.3070
 20
6.35655
 30
0.000000
  70
    32
  0
VERTEX
  8
0
  5
F3A
 10
13.3304
 20
6.30931
 30
0.000000
  70
    32
  0
VERTEX
  8
0
  5
F3B
 10
13.3541
 20
6.26218
 30
0.000000
  70
    32
  0
VERTEX
  8
0
  5
F3C
 10
13.3780
 20
6.21517
 30
0.000000
  70
    32
  0
VERTEX
  8
0
  5
F3D
 10
13.4022
 20
6.16828
 30
0.000000
  70
    32
  0
VERTEX
  8
0
  5
F3E
 10
13.4266
 20
6.12152
 30
0.000000
  70
    32
  0
VERTEX
  8
0
  5
F3F
 10
13.4512
 20
6.07489
 30
0.000000
  70
    32
  0
VERTEX
  8
0
  5
F40
 10
13.4760
 20
6.02838
 30
0.000000
  70
    32
  0
VERTEX
  8
0
  5
F41
 10
13.5011
 20
5.98201
 30
0.000000
  70
    32
  0
VERTEX
  8
0
  5
F42
 10
13.5264
 20
5.93577
 30
0.000000
  70
    32
  0
VERTEX
  8
0
  5
F43
 10
13.5520
 20
5.88967
 30
0.000000
  70
    32
  0
VERTEX
  8
0
  5
F44
 10
13.5778
 20
5.84371
 30
0.000000
  70
    32
  0
VERTEX
  8
0
  5
F45
 10
13.6038
 20
5.79788
 30
0.000000
  70
    32
  0
VERTEX
  8
0
  5
F46
 10
13.6301
 20
5.75220
 30
0.000000
  70
    32
  0
VERTEX
  8
0
  5
F47
 10
13.6566
 20
5.70667
 30
0.000000
  70
    32
  0
VERTEX
  8
0
  5
F48
 10
13.6833
 20
5.66128
 30
0.000000
  70
    32
  0
VERTEX
  8
0
  5
F49
 10
13.7103
 20
5.61605
 30
0.000000
  70
    32
  0
VERTEX
  8
0
  5
F4A
 10
13.7376
 20
5.57096
 30
0.000000
  70
    32
  0
VERTEX
  8
0
  5
F4B
 10
13.7651
 20
5.52603
 30
0.000000
  70
    32
  0
VERTEX
  8
0
  5
F4C
 10
13.7928
 20
5.48126
 30
0.000000
  70
    32
  0
VERTEX
  8
0
  5
F4D
 10
13.8208
 20
5.43665
 30
0.000000
  70
    32
  0
VERTEX
  8
0
  5
F4E
 10
13.8490
 20
5.39219
 30
0.000000
  70
    32
  0
VERTEX
  8
0
  5
F4F
 10
13.8775
 20
5.34791
 30
0.000000
  70
    32
  0
VERTEX
  8
0
  5
F50
 10
13.9062
 20
5.30378
 30
0.000000
  70
    32
  0
VERTEX
  8
0
  5
F51
 10
13.9352
 20
5.25983
 30
0.000000
  70
    32
  0
VERTEX
  8
0
  5
F52
 10
13.9644
 20
5.21605
 30
0.000000
  70
    32
  0
VERTEX
  8
0
  5
F53
 10
13.9939
 20
5.17244
 30
0.000000
  70
    32
  0
VERTEX
  8
0
  5
F54
 10
14.0236
 20
5.12901
 30
0.000000
  70
    32
  0
VERTEX
  8
0
  5
F55
 10
14.0536
 20
5.08575
 30
0.000000
  70
    32
  0
VERTEX
  8
0
  5
F56
 10
14.0838
 20
5.04267
 30
0.000000
  70
    32
  0
VERTEX
  8
0
  5
F57
 10
14.1143
 20
4.99976
 30
0.000000
  70
    32
  0
VERTEX
  8
0
  5
F58
 10
14.1451
 20
4.95704
 30
0.000000
  70
    32
  0
VERTEX
  8
0
  5
F59
 10
14.1761
 20
4.91450
 30
0.000000
  70
    32
  0
VERTEX
  8
0
  5
F5A
 10
14.2073
 20
4.87213
 30
0.000000
  70
    32
  0
VERTEX
  8
0
  5
F5B
 10
14.2388
 20
4.82995
 30
0.000000
  70
    32
  0
VERTEX
  8
0
  5
F5C
 10
14.2705
 20
4.78794
 30
0.000000
  70
    32
  0
VERTEX
  8
0
  5
F5D
 10
14.3025
 20
4.74612
 30
0.000000
  70
    32
  0
VERTEX
  8
0
  5
F5E
 10
14.3347
 20
4.70448
 30
0.000000
  70
    32
  0
VERTEX
  8
0
  5
F5F
 10
14.3671
 20
4.66302
 30
0.000000
  70
    32
  0
VERTEX
  8
0
  5
F60
 10
14.3998
 20
4.62175
 30
0.000000
  70
    32
  0
VERTEX
  8
0
  5
F61
 10
14.4327
 20
4.58066
 30
0.000000
  70
    32
  0
VERTEX
  8
0
  5
F62
 10
14.4659
 20
4.53975
 30
0.000000
  70
    32
  0
VERTEX
  8
0
  5
F63
 10
14.4993
 20
4.49903
 30
0.000000
  70
    32
  0
VERTEX
  8
0
  5
F64
 10
14.5329
 20
4.45850
 30
0.000000
  70
    32
  0
VERTEX
  8
0
  5
F65
 10
14.5668
 20
4.41815
 30
0.000000
  70
    32
  0
VERTEX
  8
0
  5
F66
 10
14.6009
 20
4.37799
 30
0.000000
  70
    32
  0
VERTEX
  8
0
  5
F67
 10
14.6352
 20
4.33802
 30
0.000000
  70
    32
  0
VERTEX
  8
0
  5
F68
 10
14.6698
 20
4.29823
 30
0.000000
  70
    32
  0
VERTEX
  8
0
  5
F69
 10
14.7045
 20
4.25864
 30
0.000000
  70
    32
  0
VERTEX
  8
0
  5
F6A
 10
14.7395
 20
4.21923
 30
0.000000
  70
    32
  0
VERTEX
  8
0
  5
F6B
 10
14.7748
 20
4.18002
 30
0.000000
  70
    32
  0
VERTEX
  8
0
  5
F6C
 10
14.8102
 20
4.14099
 30
0.000000
  70
    32
  0
VERTEX
  8
0
  5
F6D
 10
14.8459
 20
4.10216
 30
0.000000
  70
    32
  0
VERTEX
  8
0
  5
F6E
 10
14.8818
 20
4.06352
 30
0.000000
  70
    32
  0
VERTEX
  8
0
  5
F6F
 10
14.9179
 20
4.02507
 30
0.000000
  70
    32
  0
VERTEX
  8
0
  5
F70
 10
14.9542
 20
3.98682
 30
0.000000
  70
    32
  0
VERTEX
  8
0
  5
F71
 10
14.9907
 20
3.94876
 30
0.000000
  70
    32
  0
VERTEX
  8
0
  5
F72
 10
15.0275
 20
3.91089
 30
0.000000
  70
    32
  0
VERTEX
  8
0
  5
F73
 10
15.0645
 20
3.87322
 30
0.000000
  70
    32
  0
VERTEX
  8
0
  5
F74
 10
15.1016
 20
3.83574
 30
0.000000
  70
    32
  0
VERTEX
  8
0
  5
F75
 10
15.1390
 20
3.79847
 30
0.000000
  70
    32
  0
VERTEX
  8
0
  5
F76
 10
15.1766
 20
3.76139
 30
0.000000
  70
    32
  0
VERTEX
  8
0
  5
F77
 10
15.2144
 20
3.72450
 30
0.000000
  70
    32
  0
VERTEX
  8
0
  5
F78
 10
15.2525
 20
3.68782
 30
0.000000
  70
    32
  0
VERTEX
  8
0
  5
F79
 10
15.2907
 20
3.65133
 30
0.000000
  70
    32
  0
VERTEX
  8
0
  5
F7A
 10
15.3291
 20
3.61505
 30
0.000000
  70
    32
  0
VERTEX
  8
0
  5
F7B
 10
15.3677
 20
3.57896
 30
0.000000
  70
    32
  0
VERTEX
  8
0
  5
F7C
 10
15.4066
 20
3.54308
 30
0.000000
  70
    32
  0
VERTEX
  8
0
  5
F7D
 10
15.4456
 20
3.50739
 30
0.000000
  70
    32
  0
VERTEX
  8
0
  5
F7E
 10
15.4848
 20
3.47193
 30
0.000000
  70
    32
  0
VERTEX
  8
0
  5
F7F
 10
15.5243
 20
3.43669
 30
0.000000
  70
    32
  0
VERTEX
  8
0
  5
F80
 10
15.5639
 20
3.40170
 30
0.000000
  70
    32
  0
VERTEX
  8
0
  5
F81
 10
15.6038
 20
3.36696
 30
0.000000
  70
    32
  0
VERTEX
  8
0
  5
F82
 10
15.6439
 20
3.33250
 30
0.000000
  70
    32
  0
VERTEX
  8
0
  5
F83
 10
15.6842
 20
3.29832
 30
0.000000
  70
    32
  0
VERTEX
  8
0
  5
F84
 10
15.7247
 20
3.26444
 30
0.000000
  70
    32
  0
VERTEX
  8
0
  5
F85
 10
15.7655
 20
3.23088
 30
0.000000
  70
    32
  0
VERTEX
  8
0
  5
F86
 10
15.8066
 20
3.19765
 30
0.000000
  70
    32
  0
VERTEX
  8
0
  5
F87
 10
15.8478
 20
3.16476
 30
0.000000
  70
    32
  0
VERTEX
  8
0
  5
F88
 10
15.8893
 20
3.13223
 30
0.000000
  70
    32
  0
VERTEX
  8
0
  5
F89
 10
15.9311
 20
3.10007
 30
0.000000
  70
    32
  0
VERTEX
  8
0
  5
F8A
 10
15.9731
 20
3.06829
 30
0.000000
  70
    32
  0
VERTEX
  8
0
  5
F8B
 10
16.0154
 20
3.03691
 30
0.000000
  70
    32
  0
VERTEX
  8
0
  5
F8C
 10
16.0580
 20
3.00595
 30
0.000000
  70
    32
  0
VERTEX
  8
0
  5
F8D
 10
16.1008
 20
2.97542
 30
0.000000
  70
    32
  0
VERTEX
  8
0
  5
F8E
 10
16.1439
 20
2.94533
 30
0.000000
  70
    32
  0
VERTEX
  8
0
  5
F8F
 10
16.1873
 20
2.91570
 30
0.000000
  70
    32
  0
VERTEX
  8
0
  5
F90
 10
16.2310
 20
2.88654
 30
0.000000
  70
    32
  0
VERTEX
  8
0
  5
F91
 10
16.2749
 20
2.85786
 30
0.000000
  70
    32
  0
VERTEX
  8
0
  5
F92
 10
16.3192
 20
2.82968
 30
0.000000
  70
    32
  0
VERTEX
  8
0
  5
F93
 10
16.3637
 20
2.80202
 30
0.000000
  70
    32
  0
VERTEX
  8
0
  5
F94
 10
16.4086
 20
2.77489
 30
0.000000
  70
    32
  0
VERTEX
  8
0
  5
F95
 10
16.4537
 20
2.74829
 30
0.000000
  70
    32
  0
VERTEX
  8
0
  5
F96
 10
16.4992
 20
2.72223
 30
0.000000
  70
    32
  0
VERTEX
  8
0
  5
F97
 10
16.5449
 20
2.69669
 30
0.000000
  70
    32
  0
VERTEX
  8
0
  5
F98
 10
16.5909
 20
2.67164
 30
0.000000
  70
    32
  0
VERTEX
  8
0
  5
F99
 10
16.6372
 20
2.64706
 30
0.000000
  70
    32
  0
VERTEX
  8
0
  5
F9A
 10
16.6838
 20
2.62294
 30
0.000000
  70
    32
  0
VERTEX
  8
0
  5
F9B
 10
16.7306
 20
2.59925
 30
0.000000
  70
    32
  0
VERTEX
  8
0
  5
F9C
 10
16.7776
 20
2.57598
 30
0.000000
  70
    32
  0
VERTEX
  8
0
  5
F9D
 10
16.8248
 20
2.55310
 30
0.000000
  70
    32
  0
VERTEX
  8
0
  5
F9E
 10
16.8723
 20
2.53060
 30
0.000000
  70
    32
  0
VERTEX
  8
0
  5
F9F
 10
16.9199
 20
2.50846
 30
0.000000
  70
    32
  0
VERTEX
  8
0
  5
FA0
 10
16.9678
 20
2.48665
 30
0.000000
  70
    32
  0
VERTEX
  8
0
  5
FA1
 10
17.0158
 20
2.46516
 30
0.000000
  70
    32
  0
VERTEX
  8
0
  5
FA2
 10
17.0640
 20
2.44396
 30
0.000000
  70
    32
  0
VERTEX
  8
0
  5
FA3
 10
17.1124
 20
2.42304
 30
0.000000
  70
    32
  0
VERTEX
  8
0
  5
FA4
 10
17.1608
 20
2.40238
 30
0.000000
  70
    32
  0
VERTEX
  8
0
  5
FA5
 10
17.2095
 20
2.38196
 30
0.000000
  70
    32
  0
VERTEX
  8
0
  5
FA6
 10
17.2582
 20
2.36175
 30
0.000000
  70
    32
  0
VERTEX
  8
0
  5
FA7
 10
17.3071
 20
2.34174
 30
0.000000
  70
    32
  0
VERTEX
  8
0
  5
FA8
 10
17.3560
 20
2.32191
 30
0.000000
  70
    32
  0
VERTEX
  8
0
  5
FA9
 10
17.4051
 20
2.30224
 30
0.000000
  70
    32
  0
VERTEX
  8
0
  5
FAA
 10
17.4542
 20
2.28271
 30
0.000000
  70
    32
  0
VERTEX
  8
0
  5
FAB
 10
17.5034
 20
2.26329
 30
0.000000
  70
    32
  0
VERTEX
  8
0
  5
FAC
 10
17.5527
 20
2.24397
 30
0.000000
  70
    32
  0
VERTEX
  8
0
  5
FAD
 10
17.6020
 20
2.22474
 30
0.000000
  70
    32
  0
VERTEX
  8
0
  5
FAE
 10
17.6513
 20
2.20556
 30
0.000000
  70
    32
  0
VERTEX
  8
0
  5
FAF
 10
17.7006
 20
2.18642
 30
0.000000
  70
    32
  0
VERTEX
  8
0
  5
FB0
 10
17.7500
 20
2.16730
 30
0.000000
  70
    32
  0
SEQEND
  8
0
  5
FB1
  0
ENDBLK
  5
234
  8
0
  0
ENDSEC
  0
SECTION
  2
ENTITIES
  0
INSERT
  5
235
  8
0
  2
A$C1BE07120
 10
2123.6971009253102
 20
1440.019987814268
 30
0.0
  0
ENDSEC
  0
EOF
