  0
SECTION
  2
HEADER
  9
$ACADVER
  1
AC1009
  9
$INSBASE
 10
0.0
 20
0.0
 30
0.0
  9
$EXTMIN
 10
2415.049754280798
 20
1450.3168092670589
 30
0.0
  9
$EXTMAX
 10
2525.0497542791982
 20
1468.920681871527
 30
0.0
  9
$LIMMIN
 10
0.0
 20
0.0
  9
$LIMMAX
 10
420.0
 20
297.0
  9
$ORTHOMODE
 70
     0
  9
$REGENMODE
 70
     1
  9
$FILLMODE
 70
     1
  9
$QTEXTMODE
 70
     0
  9
$MIRRTEXT
 70
     0
  9
$DRAGMODE
 70
     2
  9
$LTSCALE
 40
1.0
  9
$OSMODE
 70
   903
  9
$ATTMODE
 70
     1
  9
$TEXTSIZE
 40
2.5
  9
$TRACEWID
 40
1.0
  9
$TEXTSTYLE
  7
STANDARD
  9
$CLAYER
  8
0
  9
$CELTYPE
  6
BYLAYER
  9
$CECOLOR
 62
   256
  9
$DIMSCALE
 40
1.0
  9
$DIMASZ
 40
2.5
  9
$DIMEXO
 40
0.625
  9
$DIMDLI
 40
3.75
  9
$DIMRND
 40
0.0
  9
$DIMDLE
 40
0.0
  9
$DIMEXE
 40
1.25
  9
$DIMTP
 40
0.0
  9
$DIMTM
 40
0.0
  9
$DIMTXT
 40
2.5
  9
$DIMCEN
 40
2.5
  9
$DIMTSZ
 40
0.0
  9
$DIMTOL
 70
     0
  9
$DIMLIM
 70
     0
  9
$DIMTIH
 70
     0
  9
$DIMTOH
 70
     0
  9
$DIMSE1
 70
     0
  9
$DIMSE2
 70
     0
  9
$DIMTAD
 70
     1
  9
$DIMZIN
 70
     8
  9
$DIMBLK
  1

  9
$DIMASO
 70
     1
  9
$DIMSHO
 70
     1
  9
$DIMPOST
  1

  9
$DIMAPOST
  1

  9
$DIMALT
 70
     0
  9
$DIMALTD
 70
     3
  9
$DIMALTF
 40
0.03937007874016
  9
$DIMLFAC
 40
1.0
  9
$DIMTOFL
 70
     1
  9
$DIMTVP
 40
0.0
  9
$DIMTIX
 70
     0
  9
$DIMSOXD
 70
     0
  9
$DIMSAH
 70
     0
  9
$DIMBLK1
  1

  9
$DIMBLK2
  1

  9
$DIMSTYLE
  2
ISO-25
  9
$DIMCLRD
 70
     0
  9
$DIMCLRE
 70
     0
  9
$DIMCLRT
 70
     0
  9
$DIMTFAC
 40
1.0
  9
$DIMGAP
 40
0.625
  9
$LUNITS
 70
     2
  9
$LUPREC
 70
     4
  9
$SKETCHINC
 40
1.0
  9
$FILLETRAD
 40
0.0
  9
$AUNITS
 70
     0
  9
$AUPREC
 70
     0
  9
$MENU
  1
.
  9
$ELEVATION
 40
0.0
  9
$PELEVATION
 40
0.0
  9
$THICKNESS
 40
0.0
  9
$LIMCHECK
 70
     0
  9
$BLIPMODE
 70
     0
  9
$CHAMFERA
 40
0.0
  9
$CHAMFERB
 40
0.0
  9
$SKPOLY
 70
     0
  9
$TDCREATE
 40
2456435.4158516671
  9
$TDUPDATE
 40
2456435.617787315
  9
$TDINDWG
 40
0.0011992593
  9
$TDUSRTIMER
 40
0.0011992593
  9
$USRTIMER
 70
     1
  9
$ANGBASE
 50
0.0
  9
$ANGDIR
 70
     0
  9
$PDMODE
 70
     0
  9
$PDSIZE
 40
0.0
  9
$PLINEWID
 40
0.0
  9
$COORDS
 70
     1
  9
$SPLFRAME
 70
     0
  9
$SPLINETYPE
 70
     6
  9
$SPLINESEGS
 70
     8
  9
$ATTDIA
 70
     0
  9
$ATTREQ
 70
     1
  9
$HANDLING
 70
     1
  9
$HANDSEED
  5
384
  9
$SURFTAB1
 70
     6
  9
$SURFTAB2
 70
     6
  9
$SURFTYPE
 70
     6
  9
$SURFU
 70
     6
  9
$SURFV
 70
     6
  9
$UCSNAME
  2

  9
$UCSORG
 10
0.0
 20
0.0
 30
0.0
  9
$UCSXDIR
 10
1.0
 20
0.0
 30
0.0
  9
$UCSYDIR
 10
0.0
 20
1.0
 30
0.0
  9
$PUCSNAME
  2

  9
$PUCSORG
 10
0.0
 20
0.0
 30
0.0
  9
$PUCSXDIR
 10
1.0
 20
0.0
 30
0.0
  9
$PUCSYDIR
 10
0.0
 20
1.0
 30
0.0
  9
$USERI1
 70
     0
  9
$USERI2
 70
     0
  9
$USERI3
 70
     0
  9
$USERI4
 70
     0
  9
$USERI5
 70
     0
  9
$USERR1
 40
0.0
  9
$USERR2
 40
0.0
  9
$USERR3
 40
0.0
  9
$USERR4
 40
0.0
  9
$USERR5
 40
0.0
  9
$WORLDVIEW
 70
     1
  9
$SHADEDGE
 70
     3
  9
$SHADEDIF
 70
    70
  9
$TILEMODE
 70
     1
  9
$MAXACTVP
 70
    64
  9
$PLIMCHECK
 70
     0
  9
$PEXTMIN
 10
0.0
 20
0.0
 30
0.0
  9
$PEXTMAX
 10
0.0
 20
0.0
 30
0.0
  9
$PLIMMIN
 10
0.0
 20
0.0
  9
$PLIMMAX
 10
12.0
 20
9.0
  9
$UNITMODE
 70
     0
  9
$VISRETAIN
 70
     1
  9
$PLINEGEN
 70
     0
  9
$PSLTSCALE
 70
     1
  0
ENDSEC
  0
SECTION
  2
TABLES
  0
TABLE
  2
VPORT
 70
     1
  0
VPORT
  2
*ACTIVE
 70
     0
 10
0.0
 20
0.0
 11
1.0
 21
1.0
 12
2468.3687103215238
 22
1443.8091747310241
 13
0.0
 23
0.0
 14
10.0
 24
10.0
 15
10.0
 25
10.0
 16
0.0
 26
0.0
 36
1.0
 17
0.0
 27
0.0
 37
0.0
 40
151.9382092356318
 41
1.303738317757009
 42
50.0
 43
0.0
 44
0.0
 50
0.0
 51
0.0
 71
     0
 72
  1000
 73
     1
 74
     3
 75
     0
 76
     0
 77
     0
 78
     0
  0
ENDTAB
  0
TABLE
  2
LTYPE
 70
     1
  0
LTYPE
  2
CONTINUOUS
 70
     0
  3
Solid line
 72
    65
 73
     0
 40
0.0
  0
ENDTAB
  0
TABLE
  2
LAYER
 70
     1
  0
LAYER
  2
0
 70
     0
 62
     7
  6
CONTINUOUS
  0
ENDTAB
  0
TABLE
  2
STYLE
 70
     3
  0
STYLE
  2
STANDARD
 70
     0
 40
0.0
 41
1.0
 50
0.0
 71
     0
 42
2.5
  3
txt
  4

  0
STYLE
  2
ANNOTATIVA
 70
     0
 40
0.0
 41
1.0
 50
0.0
 71
     0
 42
2.5
  3
txt
  4

  0
STYLE
  2
ARCHIVIO
 70
     0
 40
6.0
 41
1.0
 50
0.0
 71
     0
 42
5.0
  3
txt
  4

  0
ENDTAB
  0
TABLE
  2
VIEW
 70
     0
  0
ENDTAB
  0
TABLE
  2
UCS
 70
     0
  0
ENDTAB
  0
TABLE
  2
APPID
 70
    13
  0
APPID
  2
ACAD
 70
     0
  0
APPID
  2
ACAD_PSEXT
 70
     0
  0
APPID
  2
ACADANNOPO
 70
     0
  0
APPID
  2
ACADANNOTATIVE
 70
     0
  0
APPID
  2
ACAD_DSTYLE_DIMJAG
 70
     0
  0
APPID
  2
ACAD_DSTYLE_DIMTALN
 70
     0
  0
APPID
  2
ACAD_MLEADERVER
 70
     0
  0
APPID
  2
ACAD_DSTYLE_DIMJOGGED_JOGA
 70
     0
  0
APPID
  2
ACAD_DSTYLE_DIMEXT_ENABLED
 70
     0
  0
APPID
  2
ACAD_DSTYLE_DIMEXT_LENGTH
 70
     0
  0
APPID
  2
ACAD_DSTYLE_DIM_LINETYPE
 70
     0
  0
APPID
  2
ACAD_DSTYLE_DIM_EXT1_LINETYPE
 70
     0
  0
APPID
  2
ACAD_DSTYLE_DIM_EXT2_LINETYPE
 70
     0
  0
ENDTAB
  0
TABLE
  2
DIMSTYLE
 70
     4
  0
DIMSTYLE
  2
STANDARD
 70
     0
  3

  4

  5

  6

  7

 40
1.0
 41
0.18
 42
0.0625
 43
0.38
 44
0.18
 45
0.0
 46
0.0
 47
0.0
 48
0.0
140
0.18
141
0.09
142
0.0
143
25.399999999999999
144
1.0
145
0.0
146
1.0
147
0.09
 71
     0
 72
     0
 73
     1
 74
     1
 75
     0
 76
     0
 77
     0
 78
     0
170
     0
171
     2
172
     0
173
     0
174
     0
175
     0
176
     0
177
     0
178
     0
  0
DIMSTYLE
  2
ANNOTATIVA
 70
     0
  3

  4

  5

  6

  7

 40
0.0
 41
2.5
 42
0.625
 43
3.75
 44
1.25
 45
0.0
 46
0.0
 47
0.0
 48
0.0
140
2.5
141
2.5
142
0.0
143
0.03937007874016
144
1.0
145
0.0
146
1.0
147
0.625
 71
     0
 72
     0
 73
     0
 74
     0
 75
     0
 76
     0
 77
     1
 78
     8
170
     0
171
     3
172
     1
173
     0
174
     0
175
     0
176
     0
177
     0
178
     0
  0
DIMSTYLE
  2
ISO-25
 70
     0
  3

  4

  5

  6

  7

 40
1.0
 41
2.5
 42
0.625
 43
3.75
 44
1.25
 45
0.0
 46
0.0
 47
0.0
 48
0.0
140
2.5
141
2.5
142
0.0
143
0.03937007874016
144
1.0
145
0.0
146
1.0
147
0.625
 71
     0
 72
     0
 73
     0
 74
     0
 75
     0
 76
     0
 77
     1
 78
     8
170
     0
171
     3
172
     1
173
     0
174
     0
175
     0
176
     0
177
     0
178
     0
  0
DIMSTYLE
  2
ARCHIVIO
 70
     0
  3

  4

  5

  6

  7

 40
1.0
 41
6.5
 42
15.0
 43
3.5
 44
10.0
 45
0.0
 46
0.0
 47
0.0
 48
0.0
140
6.0
141
10.0
142
0.0
143
0.03937007874016
144
1.0
145
0.0
146
1.0
147
1.5
 71
     0
 72
     0
 73
     1
 74
     1
 75
     0
 76
     0
 77
     0
 78
     8
170
     0
171
     3
172
     1
173
     0
174
     0
175
     0
176
   256
177
   256
178
   256
  0
ENDTAB
  0
ENDSEC
  0
SECTION
  2
BLOCKS
  0
BLOCK
  8
0
  2
$MODEL_SPACE
 70
     0
 10
0.0
 20
0.0
 30
0.0
  3
$MODEL_SPACE
  1

  0
ENDBLK
  5
21
  8
0
  0
BLOCK
 67
     1
  8
0
  2
$PAPER_SPACE
 70
     0
 10
0.0
 20
0.0
 30
0.0
  3
$PAPER_SPACE
  1

  0
ENDBLK
  5
D5
 67
     1
  8
0
  0
BLOCK
  8
0
  2
A$C06EE01B4
 70
     0
 10
0.0
 20
0.0
 30
0.0
  3
A$C06EE01B4
  1

  0
LINE
  5
1ED
  8
0
 10
0.0000009928189684
 20
89.215232056350956
 30
0.0
 11
0.0000009928189684
 21
186.0387301066512
 31
0.0
  0
LINE
  5
1EE
  8
0
 10
150.000000992819
 20
145.0387301066512
 30
0.0
 11
150.000000992819
 21
147.0387301066512
 31
0.0
  0
LINE
  5
1EF
  8
0
 10
180.00000099281891
 20
147.0387301066512
 30
0.0
 11
180.00000099281891
 21
145.0387301066512
 31
0.0
  0
LINE
  5
1F0
  8
0
 10
264.50000099281903
 20
18.787520470451
 30
0.0
 11
264.50000099281903
 21
2.0000040626509872
 31
0.0
  0
POLYLINE
  5
1F1
  8
0
 66
     1
 10
0.0
 20
0.0
 30
0.0
  0
VERTEX
  5
29A
  8
0
 10
143.97701714990029
 20
89.215232056350487
 30
0.0
  0
VERTEX
  5
29B
  8
0
 10
146.1794639769177
 20
87.471058976350832
 30
0.0
  0
VERTEX
  5
29C
  8
0
 10
151.05078702961691
 20
83.815454138950827
 30
0.0
  0
VERTEX
  5
29D
  8
0
 10
155.96645491261731
 20
80.316657700650921
 30
0.0
  0
VERTEX
  5
29E
  8
0
 10
160.91927666641999
 20
76.970485917750921
 30
0.0
  0
VERTEX
  5
29F
  8
0
 10
165.9037088796176
 20
73.772792815050707
 30
0.0
  0
VERTEX
  5
2A0
  8
0
 10
170.90201219021759
 20
70.727043513251374
 30
0.0
  0
VERTEX
  5
2A1
  8
0
 10
175.9092459638195
 20
67.828139577050933
 30
0.0
  0
VERTEX
  5
2A2
  8
0
 10
180.91961000571609
 20
65.071694072651084
 30
0.0
  0
VERTEX
  5
2A3
  8
0
 10
185.91332502521979
 20
62.460412431751131
 30
0.0
  0
VERTEX
  5
2A4
  8
0
 10
190.88873253511699
 20
59.986431460050881
 30
0.0
  0
VERTEX
  5
2A5
  8
0
 10
195.83757544832039
 20
57.645417299250767
 30
0.0
  0
VERTEX
  5
2A6
  8
0
 10
200.72969295151779
 20
55.442555623551009
 30
0.0
  0
VERTEX
  5
2A7
  8
0
 10
205.55739614411871
 20
53.37169011355126
 30
0.0
  0
VERTEX
  5
2A8
  8
0
 10
210.3196456525184
 20
51.424044065651287
 30
0.0
  0
VERTEX
  5
2A9
  8
0
 10
214.99758800291599
 20
49.597893666651089
 30
0.0
  0
VERTEX
  5
2AA
  8
0
 10
219.5938753077171
 20
47.882749071050966
 30
0.0
  0
VERTEX
  5
2AB
  8
0
 10
224.1020346408186
 20
46.271775448551118
 30
0.0
  0
VERTEX
  5
2AC
  8
0
 10
228.4933151195182
 20
44.764737413451257
 30
0.0
  0
VERTEX
  5
2AD
  8
0
 10
232.7661118348187
 20
43.351320852951169
 30
0.0
  0
VERTEX
  5
2AE
  8
0
 10
236.92314821431859
 20
42.020027832751111
 30
0.0
  0
VERTEX
  5
2AF
  8
0
 10
240.94561773571689
 20
40.764861397051391
 30
0.0
  0
VERTEX
  5
2B0
  8
0
 10
244.82580641381719
 20
39.576965704950908
 30
0.0
  0
VERTEX
  5
2B1
  8
0
 10
250.24254143071809
 20
37.944662386250911
 30
0.0
  0
SEQEND
  5
2B2
  8
0
  0
LINE
  5
1F2
  8
0
 10
335.50000099281903
 20
18.788425796550651
 30
0.0
 11
335.50000099281903
 21
2.0000040626509872
 31
0.0
  0
POLYLINE
  5
1F3
  8
0
 66
     1
 10
0.0
 20
0.0
 30
0.0
  0
VERTEX
  5
2B3
  8
0
 10
335.49993424581771
 20
18.79226098445087
 30
0.0
  0
VERTEX
  5
2B4
  8
0
 10
335.50123605621781
 20
19.020444096550818
 30
0.0
  0
VERTEX
  5
2B5
  8
0
 10
335.53833604001562
 20
20.030977912450911
 30
0.0
  0
VERTEX
  5
2B6
  8
0
 10
335.6260358049185
 20
21.03448048405107
 30
0.0
  0
VERTEX
  5
2B7
  8
0
 10
335.76343309221562
 20
22.027877484551031
 30
0.0
  0
VERTEX
  5
2B8
  8
0
 10
335.94914520091697
 20
23.007042626951261
 30
0.0
  0
VERTEX
  5
2B9
  8
0
 10
336.18179581531882
 20
23.969716728950971
 30
0.0
  0
VERTEX
  5
2BA
  8
0
 10
336.45991456251801
 20
24.913755188450981
 30
0.0
  0
VERTEX
  5
2BB
  8
0
 10
336.7813257403177
 20
25.83548414915095
 30
0.0
  0
VERTEX
  5
2BC
  8
0
 10
337.14415884971822
 20
26.733091771450749
 30
0.0
  0
VERTEX
  5
2BD
  8
0
 10
337.54648722252023
 20
27.60490729635103
 30
0.0
  0
VERTEX
  5
2BE
  8
0
 10
337.98548772371578
 20
28.447859807050921
 30
0.0
  0
VERTEX
  5
2BF
  8
0
 10
338.45893432951931
 20
29.260684298851181
 30
0.0
  0
VERTEX
  5
2C0
  8
0
 10
338.9645903298188
 20
30.042274316150731
 30
0.0
  0
VERTEX
  5
2C1
  8
0
 10
339.4991614773171
 20
30.790268545551051
 30
0.0
  0
VERTEX
  5
2C2
  8
0
 10
340.06023980261671
 20
31.504024333250982
 30
0.0
  0
VERTEX
  5
2C3
  8
0
 10
340.64542120271648
 20
32.183016943650728
 30
0.0
  0
VERTEX
  5
2C4
  8
0
 10
341.25107184471563
 20
32.825587136250761
 30
0.0
  0
VERTEX
  5
2C5
  8
0
 10
341.874734648718
 20
33.431702438250802
 30
0.0
  0
VERTEX
  5
2C6
  8
0
 10
342.5140000792162
 20
34.00144662425101
 30
0.0
  0
VERTEX
  5
2C7
  8
0
 10
343.16506507411759
 20
34.533886872151022
 30
0.0
  0
VERTEX
  5
2C8
  8
0
 10
343.8255171908167
 20
35.029536817050939
 30
0.0
  0
VERTEX
  5
2C9
  8
0
 10
344.49312042871679
 20
35.489082097051323
 30
0.0
  0
VERTEX
  5
2CA
  8
0
 10
345.16420645381731
 20
35.912376143651272
 30
0.0
  0
VERTEX
  5
2CB
  8
0
 10
345.83651955401729
 20
36.300398561051232
 30
0.0
  0
VERTEX
  5
2CC
  8
0
 10
346.50812537391897
 20
36.654330109251077
 30
0.0
  0
VERTEX
  5
2CD
  8
0
 10
347.17580518051909
 20
36.974759937851097
 30
0.0
  0
VERTEX
  5
2CE
  8
0
 10
347.83832469671688
 20
37.263335729450773
 30
0.0
  0
VERTEX
  5
2CF
  8
0
 10
348.4933409367186
 20
37.521188804151279
 30
0.0
  0
VERTEX
  5
2D0
  8
0
 10
349.13584522011661
 20
37.748654963151239
 30
0.0
  0
VERTEX
  5
2D1
  8
0
 10
349.75162280131917
 20
37.943805357750989
 30
0.0
  0
SEQEND
  5
2D2
  8
0
  0
LINE
  5
1F4
  8
0
 10
335.4999982604204
 20
18.79077484055097
 30
0.0
 11
335.50000098571758
 21
18.79090536685089
 31
0.0
  0
LINE
  5
1F5
  8
0
 10
420.00000099281903
 20
145.0387301066512
 30
0.0
 11
420.00000099281903
 21
147.0387301066512
 31
0.0
  0
LINE
  5
1F6
  8
0
 10
250.24757727341779
 20
37.943134899051067
 30
0.0
 11
250.2441892531169
 21
37.944170311750902
 31
0.0
  0
POLYLINE
  5
1F7
  8
0
 66
     1
 10
0.0
 20
0.0
 30
0.0
  0
VERTEX
  5
2D3
  8
0
 10
250.24595626971859
 20
37.943591822650887
 30
0.0
  0
VERTEX
  5
2D4
  8
0
 10
250.70112228921789
 20
37.801536245950963
 30
0.0
  0
VERTEX
  5
2D5
  8
0
 10
251.283585490517
 20
37.602042314651051
 30
0.0
  0
VERTEX
  5
2D6
  8
0
 10
251.87225756981931
 20
37.37963622955067
 30
0.0
  0
VERTEX
  5
2D7
  8
0
 10
252.4639558189192
 20
37.134283919451264
 30
0.0
  0
VERTEX
  5
2D8
  8
0
 10
253.0572540165158
 20
36.865441117151022
 30
0.0
  0
VERTEX
  5
2D9
  8
0
 10
253.65138076381851
 20
36.572288634150937
 30
0.0
  0
VERTEX
  5
2DA
  8
0
 10
254.24427735341669
 20
36.254673236951021
 30
0.0
  0
VERTEX
  5
2DB
  8
0
 10
254.834919536217
 20
35.911985273050959
 30
0.0
  0
VERTEX
  5
2DC
  8
0
 10
255.42193153921841
 20
35.543825940350871
 30
0.0
  0
VERTEX
  5
2DD
  8
0
 10
256.0028041777187
 20
35.15063402575106
 30
0.0
  0
VERTEX
  5
2DE
  8
0
 10
256.57640188121883
 20
34.73209172595125
 30
0.0
  0
VERTEX
  5
2DF
  8
0
 10
257.14136617141781
 20
34.288063533351313
 30
0.0
  0
VERTEX
  5
2E0
  8
0
 10
257.6950097460176
 20
33.819625517151053
 30
0.0
  0
VERTEX
  5
2E1
  8
0
 10
258.23615649121712
 20
33.326824616050999
 30
0.0
  0
VERTEX
  5
2E2
  8
0
 10
258.76356283381762
 20
32.809805628250622
 30
0.0
  0
VERTEX
  5
2E3
  8
0
 10
259.27468611881699
 20
32.270183004650789
 30
0.0
  0
VERTEX
  5
2E4
  8
0
 10
259.76799514871891
 20
31.70886788405096
 30
0.0
  0
VERTEX
  5
2E5
  8
0
 10
260.24288465251811
 20
31.12580987605088
 30
0.0
  0
VERTEX
  5
2E6
  8
0
 10
260.69834182341577
 20
30.521403422250842
 30
0.0
  0
VERTEX
  5
2E7
  8
0
 10
261.13331366091728
 20
29.896131800151121
 30
0.0
  0
VERTEX
  5
2E8
  8
0
 10
261.54667609761958
 20
29.250641502851071
 30
0.0
  0
VERTEX
  5
2E9
  8
0
 10
261.93731722931989
 20
28.58565130605075
 30
0.0
  0
VERTEX
  5
2EA
  8
0
 10
262.30425094321981
 20
27.901741707751171
 30
0.0
  0
VERTEX
  5
2EB
  8
0
 10
262.64636084071748
 20
27.19980977345131
 30
0.0
  0
VERTEX
  5
2EC
  8
0
 10
262.96242555441859
 20
26.48116628045091
 30
0.0
  0
VERTEX
  5
2ED
  8
0
 10
263.25150372701682
 20
25.746720215151068
 30
0.0
  0
VERTEX
  5
2EE
  8
0
 10
263.51268117261861
 20
24.997433433551119
 30
0.0
  0
VERTEX
  5
2EF
  8
0
 10
263.74493137451651
 20
24.23482324035103
 30
0.0
  0
VERTEX
  5
2F0
  8
0
 10
263.94746322471838
 20
23.45997360695128
 30
0.0
  0
VERTEX
  5
2F1
  8
0
 10
264.11952317641772
 20
22.67401563065096
 30
0.0
  0
VERTEX
  5
2F2
  8
0
 10
264.26031739961758
 20
21.878641856651029
 30
0.0
  0
VERTEX
  5
2F3
  8
0
 10
264.3692383588168
 20
21.07508340175082
 30
0.0
  0
VERTEX
  5
2F4
  8
0
 10
264.44572526411872
 20
20.264610156151321
 30
0.0
  0
VERTEX
  5
2F5
  8
0
 10
264.4892492767176
 20
19.449050221750891
 30
0.0
  0
VERTEX
  5
2F6
  8
0
 10
264.50006731491879
 20
18.791357230750691
 30
0.0
  0
SEQEND
  5
2F7
  8
0
  0
LINE
  5
1F8
  8
0
 10
450.00000099281891
 20
147.0387301066512
 30
0.0
 11
450.00000099281891
 21
145.0387301066512
 31
0.0
  0
LINE
  5
1F9
  8
0
 10
333.50000099281903
 20
0.0000040626509872
 30
0.0
 11
266.50000099291719
 21
0.0000040626509872
 31
0.0
  0
LINE
  5
1FA
  8
0
 10
766.50000099291719
 20
0.0000040626509872
 30
0.0
 11
833.50000099281897
 21
0.0000040626509872
 31
0.0
  0
POLYLINE
  5
1FB
  8
0
 66
     1
 10
0.0
 20
0.0
 30
0.0
  0
VERTEX
  5
2F8
  8
0
 10
359.0478405346185
 20
40.765210002450651
 30
0.0
  0
VERTEX
  5
2F9
  8
0
 10
363.068006823818
 20
42.02000588115061
 30
0.0
  0
VERTEX
  5
2FA
  8
0
 10
367.22204156111911
 20
43.350332205151062
 30
0.0
  0
VERTEX
  5
2FB
  8
0
 10
371.49258620861661
 20
44.762553807650868
 30
0.0
  0
VERTEX
  5
2FC
  8
0
 10
375.88316893231968
 20
46.268521983351093
 30
0.0
  0
VERTEX
  5
2FD
  8
0
 10
380.39140529171709
 20
47.878411843650611
 30
0.0
  0
VERTEX
  5
2FE
  8
0
 10
384.98768928881691
 20
49.59231031315084
 30
0.0
  0
VERTEX
  5
2FF
  8
0
 10
389.66545326761837
 20
51.417248311150622
 30
0.0
  0
VERTEX
  5
300
  8
0
 10
394.42739758631802
 20
53.36400367035094
 30
0.0
  0
VERTEX
  5
301
  8
0
 10
399.25414863031619
 20
55.434228463350792
 30
0.0
  0
VERTEX
  5
302
  8
0
 10
404.14499995402002
 20
57.636684376550882
 30
0.0
  0
VERTEX
  5
303
  8
0
 10
409.09270746581751
 20
59.977509486150673
 30
0.0
  0
VERTEX
  5
304
  8
0
 10
414.06705258221689
 20
62.45121612295133
 30
0.0
  0
VERTEX
  5
305
  8
0
 10
419.0601590301157
 20
65.061992862350962
 30
0.0
  0
VERTEX
  5
306
  8
0
 10
424.07095820461831
 20
67.81773675155091
 30
0.0
  0
VERTEX
  5
307
  8
0
 10
429.0794913190183
 20
70.715833961450699
 30
0.0
  0
VERTEX
  5
308
  8
0
 10
434.07957649271702
 20
73.760794522550896
 30
0.0
  0
VERTEX
  5
309
  8
0
 10
439.06615848261561
 20
76.958019514750958
 30
0.0
  0
VERTEX
  5
30A
  8
0
 10
444.02152156101869
 20
80.304488102850883
 30
0.0
  0
VERTEX
  5
30B
  8
0
 10
448.93980978311799
 20
83.804492878551173
 30
0.0
  0
VERTEX
  5
30C
  8
0
 10
453.81369730491849
 20
87.462004114250689
 30
0.0
  0
VERTEX
  5
30D
  8
0
 10
456.02736132185231
 20
89.215232056351624
 30
0.0
  0
SEQEND
  5
30E
  8
0
  0
LINE
  5
1FC
  8
0
 10
349.7533888741163
 20
37.944384577151141
 30
0.0
 11
349.74999851751642
 21
37.943347859851201
 31
0.0
  0
POLYLINE
  5
1FD
  8
0
 66
     1
 10
0.0
 20
0.0
 30
0.0
  0
VERTEX
  5
30F
  8
0
 10
349.75503874781862
 20
37.944877505550721
 30
0.0
  0
VERTEX
  5
310
  8
0
 10
351.43131255191838
 20
38.447535197251
 30
0.0
  0
VERTEX
  5
311
  8
0
 10
359.0478405346185
 20
40.765210002450651
 30
0.0
  0
SEQEND
  5
312
  8
0
  0
LINE
  5
1FE
  8
0
 10
1100.000000992819
 20
89.215232056350956
 30
0.0
 11
956.02298483581762
 21
89.215232056350956
 31
0.0
  0
LINE
  5
1FF
  8
0
 10
956.02298483581762
 20
89.215232056350956
 30
0.0
 11
143.97701714990029
 21
89.215232056350487
 31
0.0
  0
LINE
  5
200
  8
0
 10
143.97701714991851
 20
89.215232056350956
 30
0.0
 11
0.0000009928189684
 21
89.215232056350956
 31
0.0
  0
LINE
  5
201
  8
0
 10
748.56868943381778
 20
38.447535197251
 30
0.0
 11
750.24496323791755
 21
37.944877505550721
 31
0.0
  0
POLYLINE
  5
202
  8
0
 66
     1
 10
0.0
 20
0.0
 30
0.0
  0
VERTEX
  5
313
  8
0
 10
750.24661311161606
 20
37.944384577151141
 30
0.0
  0
VERTEX
  5
314
  8
0
 10
750.55165595451763
 20
37.850443066550717
 30
0.0
  0
VERTEX
  5
315
  8
0
 10
751.18199775021628
 20
37.639222336050807
 30
0.0
  0
VERTEX
  5
316
  8
0
 10
751.81225594041825
 20
37.40421127395075
 30
0.0
  0
VERTEX
  5
317
  8
0
 10
752.44702623331966
 20
37.142541702950894
 30
0.0
  0
VERTEX
  5
318
  8
0
 10
753.08312954761641
 20
36.854104677150637
 30
0.0
  0
VERTEX
  5
319
  8
0
 10
753.71902077471896
 20
36.538265805651008
 30
0.0
  0
VERTEX
  5
31A
  8
0
 10
754.35351643491595
 20
36.194235257750726
 30
0.0
  0
VERTEX
  5
31B
  8
0
 10
754.98410905331912
 20
35.822010591050912
 30
0.0
  0
VERTEX
  5
31C
  8
0
 10
755.60947575261889
 20
35.421031718650738
 30
0.0
  0
VERTEX
  5
31D
  8
0
 10
756.22798020381742
 20
34.990957514050933
 30
0.0
  0
VERTEX
  5
31E
  8
0
 10
756.83674914081712
 20
34.532467226551042
 30
0.0
  0
VERTEX
  5
31F
  8
0
 10
757.43436477081923
 20
34.04536928565085
 30
0.0
  0
VERTEX
  5
320
  8
0
 10
758.01921239701915
 20
33.529667559851077
 30
0.0
  0
VERTEX
  5
321
  8
0
 10
758.58832942401932
 20
32.986765022251348
 30
0.0
  0
VERTEX
  5
322
  8
0
 10
759.14010709481954
 20
32.417111760851178
 30
0.0
  0
VERTEX
  5
323
  8
0
 10
759.67328224311848
 20
31.820874609350991
 30
0.0
  0
VERTEX
  5
324
  8
0
 10
760.18564950471773
 20
31.199408681951351
 30
0.0
  0
VERTEX
  5
325
  8
0
 10
760.67558535861815
 20
30.553668188151281
 30
0.0
  0
VERTEX
  5
326
  8
0
 10
761.14204354192043
 20
29.883956866950939
 30
0.0
  0
VERTEX
  5
327
  8
0
 10
761.58378129191976
 20
29.19084541715074
 30
0.0
  0
VERTEX
  5
328
  8
0
 10
761.99958517401683
 20
28.474885960150921
 30
0.0
  0
VERTEX
  5
329
  8
0
 10
762.38797235241873
 20
27.73717489465071
 30
0.0
  0
VERTEX
  5
32A
  8
0
 10
762.7473705344164
 20
26.97923927765078
 30
0.0
  0
VERTEX
  5
32B
  8
0
 10
763.07656604781732
 20
26.202134451850721
 30
0.0
  0
VERTEX
  5
32C
  8
0
 10
763.37437392991706
 20
25.40699545435109
 30
0.0
  0
VERTEX
  5
32D
  8
0
 10
763.63945936741948
 20
24.595644545551298
 30
0.0
  0
VERTEX
  5
32E
  8
0
 10
763.87079453891783
 20
23.769382677251091
 30
0.0
  0
VERTEX
  5
32F
  8
0
 10
764.06739882441605
 20
22.92957611475094
 30
0.0
  0
VERTEX
  5
330
  8
0
 10
764.22823686161792
 20
22.078290883151109
 30
0.0
  0
VERTEX
  5
331
  8
0
 10
764.35251750811585
 20
21.217032718550861
 30
0.0
  0
VERTEX
  5
332
  8
0
 10
764.43951047651706
 20
20.347361376550911
 30
0.0
  0
VERTEX
  5
333
  8
0
 10
764.48852796651772
 20
19.471532036850931
 30
0.0
  0
VERTEX
  5
334
  8
0
 10
764.50006773982011
 20
18.792260454851199
 30
0.0
  0
SEQEND
  5
335
  8
0
  0
LINE
  5
203
  8
0
 10
441.00000099281891
 20
136.0387301066512
 30
0.0
 11
429.00000099281891
 21
136.0387301066512
 31
0.0
  0
LINE
  5
204
  8
0
 10
171.00000099281891
 20
136.0387301066512
 30
0.0
 11
159.00000099281891
 21
136.0387301066512
 31
0.0
  0
LINE
  5
205
  8
0
 10
659.00000099281885
 20
136.0387301066512
 30
0.0
 11
671.00000099281885
 21
136.0387301066512
 31
0.0
  0
LINE
  5
206
  8
0
 10
929.00000099281897
 20
136.0387301066512
 30
0.0
 11
941.00000099281885
 21
136.0387301066512
 31
0.0
  0
LINE
  5
207
  8
0
 10
941.00000099281885
 20
156.0387301066512
 30
0.0
 11
929.00000099281897
 21
156.0387301066512
 31
0.0
  0
LINE
  5
208
  8
0
 10
671.00000099281885
 20
156.0387301066512
 30
0.0
 11
659.00000099281885
 21
156.0387301066512
 31
0.0
  0
LINE
  5
209
  8
0
 10
159.00000099281891
 20
156.0387301066512
 30
0.0
 11
171.00000099281891
 21
156.0387301066512
 31
0.0
  0
LINE
  5
20A
  8
0
 10
429.00000099281891
 20
156.0387301066512
 30
0.0
 11
441.00000099281891
 21
156.0387301066512
 31
0.0
  0
POLYLINE
  5
20B
  8
0
 66
     1
 10
0.0
 20
0.0
 30
0.0
  0
VERTEX
  5
336
  8
0
 10
643.97264066388379
 20
89.215232056351624
 30
0.0
  0
VERTEX
  5
337
  8
0
 10
646.18630468081756
 20
87.462004114250689
 30
0.0
  0
VERTEX
  5
338
  8
0
 10
651.06019220261805
 20
83.804492878551173
 30
0.0
  0
VERTEX
  5
339
  8
0
 10
655.97848042471742
 20
80.304488102850883
 30
0.0
  0
VERTEX
  5
33A
  8
0
 10
660.9338435031168
 20
76.958019514750958
 30
0.0
  0
VERTEX
  5
33B
  8
0
 10
665.92042549291716
 20
73.760794522550896
 30
0.0
  0
VERTEX
  5
33C
  8
0
 10
670.92051066671775
 20
70.715833961450699
 30
0.0
  0
VERTEX
  5
33D
  8
0
 10
675.9290437811178
 20
67.81773675155091
 30
0.0
  0
VERTEX
  5
33E
  8
0
 10
680.93984295561677
 20
65.061992862350962
 30
0.0
  0
VERTEX
  5
33F
  8
0
 10
685.93294940351916
 20
62.45121612295133
 30
0.0
  0
VERTEX
  5
340
  8
0
 10
690.90729451982043
 20
59.977509486150673
 30
0.0
  0
VERTEX
  5
341
  8
0
 10
695.85500203171966
 20
57.636684376550882
 30
0.0
  0
VERTEX
  5
342
  8
0
 10
700.74585335531799
 20
55.434228463350792
 30
0.0
  0
VERTEX
  5
343
  8
0
 10
705.5726043994182
 20
53.36400367035094
 30
0.0
  0
VERTEX
  5
344
  8
0
 10
710.33454871811773
 20
51.417248311150622
 30
0.0
  0
VERTEX
  5
345
  8
0
 10
715.01231269691925
 20
49.59231031315084
 30
0.0
  0
VERTEX
  5
346
  8
0
 10
719.60859669401907
 20
47.878411843650611
 30
0.0
  0
VERTEX
  5
347
  8
0
 10
724.11683305331826
 20
46.268521983351093
 30
0.0
  0
VERTEX
  5
348
  8
0
 10
728.50741577711585
 20
44.762553807650868
 30
0.0
  0
VERTEX
  5
349
  8
0
 10
732.77796042461705
 20
43.350332205151062
 30
0.0
  0
VERTEX
  5
34A
  8
0
 10
736.93199516191805
 20
42.02000588115061
 30
0.0
  0
VERTEX
  5
34B
  8
0
 10
740.95216145101585
 20
40.765210002450651
 30
0.0
  0
VERTEX
  5
34C
  8
0
 10
748.56868943381778
 20
38.447535197251
 30
0.0
  0
SEQEND
  5
34D
  8
0
  0
LINE
  5
20C
  8
0
 10
650.00000099281885
 20
147.0387301066512
 30
0.0
 11
650.00000099281885
 21
145.0387301066512
 31
0.0
  0
LINE
  5
20D
  8
0
 10
0.0000009928189684
 20
186.0387301066512
 30
0.0
 11
1100.000000992819
 21
186.0387301066512
 31
0.0
  0
LINE
  5
20E
  8
0
 10
680.00000099281885
 20
145.0387301066512
 30
0.0
 11
680.00000099281885
 21
147.0387301066512
 31
0.0
  0
POLYLINE
  5
20F
  8
0
 66
     1
 10
0.0
 20
0.0
 30
0.0
  0
VERTEX
  5
34E
  8
0
 10
859.05438425001921
 20
40.764861397051391
 30
0.0
  0
VERTEX
  5
34F
  8
0
 10
863.07685377141752
 20
42.020027832751111
 30
0.0
  0
VERTEX
  5
350
  8
0
 10
867.23389015091743
 20
43.351320852951169
 30
0.0
  0
VERTEX
  5
351
  8
0
 10
871.50668686611596
 20
44.764737413451257
 30
0.0
  0
VERTEX
  5
352
  8
0
 10
875.89796734491745
 20
46.271775448551118
 30
0.0
  0
VERTEX
  5
353
  8
0
 10
880.40612667801906
 20
47.882749071050966
 30
0.0
  0
VERTEX
  5
354
  8
0
 10
885.00241398281639
 20
49.597893666651089
 30
0.0
  0
VERTEX
  5
355
  8
0
 10
889.68035633311945
 20
51.424044065651287
 30
0.0
  0
VERTEX
  5
356
  8
0
 10
894.44260584161736
 20
53.37169011355126
 30
0.0
  0
VERTEX
  5
357
  8
0
 10
899.27030903421837
 20
55.442555623551009
 30
0.0
  0
VERTEX
  5
358
  8
0
 10
904.16242653741938
 20
57.645417299250767
 30
0.0
  0
VERTEX
  5
359
  8
0
 10
909.1112694506154
 20
59.986431460050881
 30
0.0
  0
VERTEX
  5
35A
  8
0
 10
914.08667696041823
 20
62.460412431751131
 30
0.0
  0
VERTEX
  5
35B
  8
0
 10
919.08039198001632
 20
65.071694072651084
 30
0.0
  0
VERTEX
  5
35C
  8
0
 10
924.09075602192024
 20
67.828139577050933
 30
0.0
  0
VERTEX
  5
35D
  8
0
 10
929.09798979551852
 20
70.727043513251374
 30
0.0
  0
VERTEX
  5
35E
  8
0
 10
934.0962931060202
 20
73.772792815050707
 30
0.0
  0
VERTEX
  5
35F
  8
0
 10
939.08072531931975
 20
76.970485917750921
 30
0.0
  0
VERTEX
  5
360
  8
0
 10
944.03354707311519
 20
80.316657700650921
 30
0.0
  0
VERTEX
  5
361
  8
0
 10
948.94921495611925
 20
83.815454138950827
 30
0.0
  0
VERTEX
  5
362
  8
0
 10
953.8205380088184
 20
87.471058976350832
 30
0.0
  0
VERTEX
  5
363
  8
0
 10
956.02298483578841
 20
89.215232056350246
 30
0.0
  0
SEQEND
  5
364
  8
0
  0
LINE
  5
210
  8
0
 10
849.56840463151809
 20
37.887100056550942
 30
0.0
 11
859.05438425001921
 21
40.764861397051391
 31
0.0
  0
LINE
  5
211
  8
0
 10
764.50000099281885
 20
2.0000040626509872
 30
0.0
 11
764.50000099281885
 21
18.788425796550651
 31
0.0
  0
LINE
  5
212
  8
0
 10
835.50000099281897
 20
2.0000040626509872
 30
0.0
 11
835.50000099281897
 21
18.787520470451
 31
0.0
  0
LINE
  5
213
  8
0
 10
835.50000098501926
 20
18.790002499051301
 30
0.0
 11
835.49999836071947
 21
18.789874361351391
 31
0.0
  0
POLYLINE
  5
214
  8
0
 66
     1
 10
0.0
 20
0.0
 30
0.0
  0
VERTEX
  5
365
  8
0
 10
835.49993467071897
 20
18.79135773135113
 30
0.0
  0
VERTEX
  5
366
  8
0
 10
835.52848407371846
 20
19.859548386851198
 30
0.0
  0
VERTEX
  5
367
  8
0
 10
835.6073421249165
 20
20.861198476150999
 30
0.0
  0
VERTEX
  5
368
  8
0
 10
835.73572802061983
 20
21.853213774551019
 30
0.0
  0
VERTEX
  5
369
  8
0
 10
835.91230541771802
 20
22.831493317750759
 30
0.0
  0
VERTEX
  5
36A
  8
0
 10
836.13572841981647
 20
23.793783089350651
 30
0.0
  0
VERTEX
  5
36B
  8
0
 10
836.40455701491726
 20
24.737941665051039
 30
0.0
  0
VERTEX
  5
36C
  8
0
 10
836.71666754441685
 20
25.66030859875082
 30
0.0
  0
VERTEX
  5
36D
  8
0
 10
837.07022162701833
 20
26.559067880451039
 30
0.0
  0
VERTEX
  5
36E
  8
0
 10
837.46332390841769
 20
27.43254258545085
 30
0.0
  0
VERTEX
  5
36F
  8
0
 10
837.89320559111729
 20
28.277662383051389
 30
0.0
  0
VERTEX
  5
370
  8
0
 10
838.35767170811596
 20
29.09314875415112
 30
0.0
  0
VERTEX
  5
371
  8
0
 10
838.85451480051779
 20
29.877879552951072
 30
0.0
  0
VERTEX
  5
372
  8
0
 10
839.38049334371681
 20
30.62948082595085
 30
0.0
  0
VERTEX
  5
373
  8
0
 10
839.93322461431671
 20
31.34728583235119
 30
0.0
  0
VERTEX
  5
374
  8
0
 10
840.51033074811846
 20
32.030747947051168
 30
0.0
  0
VERTEX
  5
375
  8
0
 10
841.10823170421645
 20
32.678188521550972
 30
0.0
  0
VERTEX
  5
376
  8
0
 10
841.72449085892003
 20
33.28954436865115
 30
0.0
  0
VERTEX
  5
377
  8
0
 10
842.35671812821965
 20
33.864869021451341
 30
0.0
  0
VERTEX
  5
378
  8
0
 10
843.00116135292035
 20
34.403200958950947
 30
0.0
  0
VERTEX
  5
379
  8
0
 10
843.65542550091766
 20
34.905019562351299
 30
0.0
  0
VERTEX
  5
37A
  8
0
 10
844.31728286371799
 20
35.370972475450799
 30
0.0
  0
VERTEX
  5
37B
  8
0
 10
844.98309950391547
 20
35.800871440151241
 30
0.0
  0
VERTEX
  5
37C
  8
0
 10
845.65062058381591
 20
36.195653791351113
 30
0.0
  0
VERTEX
  5
37D
  8
0
 10
846.31792066941853
 20
36.55646822475137
 30
0.0
  0
VERTEX
  5
37E
  8
0
 10
846.9818278828169
 20
36.883872233051079
 30
0.0
  0
VERTEX
  5
37F
  8
0
 10
847.6408826064179
 20
37.179385518851177
 30
0.0
  0
VERTEX
  5
380
  8
0
 10
848.2929674835176
 20
37.444209028851219
 30
0.0
  0
VERTEX
  5
381
  8
0
 10
848.93384103981953
 20
37.678867944450758
 30
0.0
  0
VERTEX
  5
382
  8
0
 10
849.56840463151809
 20
37.887100056550942
 30
0.0
  0
SEQEND
  5
383
  8
0
  0
LINE
  5
215
  8
0
 10
920.00000099281885
 20
147.0387301066512
 30
0.0
 11
920.00000099281885
 21
145.0387301066512
 31
0.0
  0
LINE
  5
216
  8
0
 10
950.00000099281885
 20
147.03873016985099
 30
0.0
 11
950.00000099281885
 21
145.0387301066512
 31
0.0
  0
LINE
  5
217
  8
0
 10
1100.000000992819
 20
89.215232056350956
 30
0.0
 11
1100.000000992819
 21
186.0387301066512
 31
0.0
  0
ARC
  5
218
  8
0
 10
333.50000099281903
 20
2.0000040626509872
 30
0.0
 40
2.0
 50
270.0
 51
0.0
  0
ARC
  5
219
  8
0
 10
266.50000099281903
 20
2.0000040626509872
 30
0.0
 40
2.0
 50
180.0
 51
270.0
  0
ARC
  5
21A
  8
0
 10
171.00000099281891
 20
145.0387301066512
 30
0.0
 40
9.0
 50
270.0
 51
0.0
  0
ARC
  5
21B
  8
0
 10
171.00000099281891
 20
147.0387301066512
 30
0.0
 40
9.0
 50
0.0
 51
90.0
  0
ARC
  5
21C
  8
0
 10
159.00000099281891
 20
147.0387301066512
 30
0.0
 40
9.0
 50
90.0
 51
180.0
  0
ARC
  5
21D
  8
0
 10
159.00000099281891
 20
145.0387301066512
 30
0.0
 40
9.0
 50
180.0
 51
270.0
  0
ARC
  5
21E
  8
0
 10
429.00000099281891
 20
147.0387301066512
 30
0.0
 40
9.0
 50
90.000000374776604
 51
180.00000001529429
  0
ARC
  5
21F
  8
0
 10
429.00000099281891
 20
145.0387301066512
 30
0.0
 40
9.0
 50
180.0000003749069
 51
270.00000001521619
  0
ARC
  5
220
  8
0
 10
441.00000099281891
 20
145.0387301066512
 30
0.0
 40
9.0
 50
270.00000037477662
 51
0.0
  0
ARC
  5
221
  8
0
 10
441.00000099281891
 20
147.0387301066512
 30
0.0
 40
9.0
 50
0.0000003749068907
 51
90.000000015216173
  0
ARC
  5
222
  8
0
 10
766.50000099281885
 20
2.0000040626509872
 30
0.0
 40
2.0
 50
180.0
 51
270.0
  0
ARC
  5
223
  8
0
 10
833.50000099281897
 20
2.0000040626509872
 30
0.0
 40
2.0
 50
270.0
 51
0.0
  0
ARC
  5
224
  8
0
 10
671.00000099281885
 20
145.0387301066512
 30
0.0
 40
9.0
 50
270.0
 51
0.0
  0
ARC
  5
225
  8
0
 10
671.00000099281885
 20
147.0387301066512
 30
0.0
 40
9.0
 50
0.0
 51
90.0
  0
ARC
  5
226
  8
0
 10
659.00000099281885
 20
147.0387301066512
 30
0.0
 40
9.0
 50
90.0
 51
180.0
  0
ARC
  5
227
  8
0
 10
659.00000099281885
 20
145.0387301066512
 30
0.0
 40
9.0
 50
180.0
 51
270.0
  0
ARC
  5
228
  8
0
 10
929.00000099281897
 20
145.0387301066512
 30
0.0
 40
9.0
 50
180.0
 51
270.0
  0
ARC
  5
229
  8
0
 10
929.00000099281897
 20
147.0387301066512
 30
0.0
 40
9.0
 50
90.0
 51
180.0
  0
ARC
  5
22A
  8
0
 10
941.00000099281885
 20
147.0387301066512
 30
0.0
 40
9.0
 50
0.0
 51
90.0
  0
ARC
  5
22B
  8
0
 10
941.00000099281885
 20
145.0387301066512
 30
0.0
 40
9.0
 50
270.0
 51
0.0
  0
ENDBLK
  5
22F
  8
0
  0
ENDSEC
  0
SECTION
  2
ENTITIES
  0
INSERT
  5
230
  8
0
  2
A$C06EE01B4
 10
2415.0497541815171
 20
1450.316808860794
 30
0.0
 41
0.0999999999985448
 42
0.1000000000003638
 43
0.1
  0
ENDSEC
  0
EOF
