  0
SECTION
  2
HEADER
  9
$ACADVER
  1
AC1015
  9
$ACADMAINTVER
 70
    20
  9
$DWGCODEPAGE
  3
ANSI_1252
  9
$INSBASE
 10
0.0
 20
0.0
 30
0.0
  9
$EXTMIN
 10
6966.482538925527
 20
2692.079540678824
 30
0.0
  9
$EXTMAX
 10
6968.872524738777
 20
2692.416540678826
 30
0.0
  9
$LIMMIN
 10
0.0
 20
0.0
  9
$LIMMAX
 10
420.0
 20
297.0
  9
$ORTHOMODE
 70
     0
  9
$REGENMODE
 70
     1
  9
$FILLMODE
 70
     1
  9
$QTEXTMODE
 70
     0
  9
$MIRRTEXT
 70
     1
  9
$LTSCALE
 40
1.0
  9
$ATTMODE
 70
     1
  9
$TEXTSIZE
 40
2.5
  9
$TRACEWID
 40
1.0
  9
$TEXTSTYLE
  7
SANINDUSA
  9
$CLAYER
  8
0
  9
$CELTYPE
  6
ByLayer
  9
$CECOLOR
 62
   256
  9
$CELTSCALE
 40
1.0
  9
$DISPSILH
 70
     0
  9
$DIMSCALE
 40
1.0
  9
$DIMASZ
 40
2.0
  9
$DIMEXO
 40
1.0
  9
$DIMDLI
 40
1.0
  9
$DIMRND
 40
0.0
  9
$DIMDLE
 40
0.0
  9
$DIMEXE
 40
1.0
  9
$DIMTP
 40
0.0
  9
$DIMTM
 40
0.0
  9
$DIMTXT
 40
2.0
  9
$DIMCEN
 40
0.0
  9
$DIMTSZ
 40
0.0
  9
$DIMTOL
 70
     0
  9
$DIMLIM
 70
     0
  9
$DIMTIH
 70
     0
  9
$DIMTOH
 70
     0
  9
$DIMSE1
 70
     0
  9
$DIMSE2
 70
     0
  9
$DIMTAD
 70
     1
  9
$DIMZIN
 70
     8
  9
$DIMBLK
  1

  9
$DIMASO
 70
     1
  9
$DIMSHO
 70
     1
  9
$DIMPOST
  1

  9
$DIMAPOST
  1

  9
$DIMALT
 70
     0
  9
$DIMALTD
 70
     3
  9
$DIMALTF
 40
0.03937007874016
  9
$DIMLFAC
 40
1.0
  9
$DIMTOFL
 70
     1
  9
$DIMTVP
 40
0.0
  9
$DIMTIX
 70
     0
  9
$DIMSOXD
 70
     0
  9
$DIMSAH
 70
     0
  9
$DIMBLK1
  1

  9
$DIMBLK2
  1

  9
$DIMSTYLE
  2
SANINDUSA
  9
$DIMCLRD
 70
   256
  9
$DIMCLRE
 70
   256
  9
$DIMCLRT
 70
   256
  9
$DIMTFAC
 40
1.0
  9
$DIMGAP
 40
1.0
  9
$DIMJUST
 70
     0
  9
$DIMSD1
 70
     0
  9
$DIMSD2
 70
     0
  9
$DIMTOLJ
 70
     0
  9
$DIMTZIN
 70
     8
  9
$DIMALTZ
 70
     0
  9
$DIMALTTZ
 70
     0
  9
$DIMUPT
 70
     0
  9
$DIMDEC
 70
     1
  9
$DIMTDEC
 70
     1
  9
$DIMALTU
 70
     2
  9
$DIMALTTD
 70
     3
  9
$DIMTXSTY
  7
SANINDUSA
  9
$DIMAUNIT
 70
     0
  9
$DIMADEC
 70
     1
  9
$DIMALTRND
 40
0.0
  9
$DIMAZIN
 70
     0
  9
$DIMDSEP
 70
    44
  9
$DIMATFIT
 70
     3
  9
$DIMFRAC
 70
     0
  9
$DIMLDRBLK
  1

  9
$DIMLUNIT
 70
     2
  9
$DIMLWD
 70
    -1
  9
$DIMLWE
 70
    -1
  9
$DIMTMOVE
 70
     0
  9
$LUNITS
 70
     2
  9
$LUPREC
 70
     4
  9
$SKETCHINC
 40
1.0
  9
$FILLETRAD
 40
0.0
  9
$AUNITS
 70
     0
  9
$AUPREC
 70
     0
  9
$MENU
  1
.
  9
$ELEVATION
 40
0.0
  9
$PELEVATION
 40
0.0
  9
$THICKNESS
 40
0.0
  9
$LIMCHECK
 70
     0
  9
$CHAMFERA
 40
10.0
  9
$CHAMFERB
 40
10.0
  9
$CHAMFERC
 40
20.0
  9
$CHAMFERD
 40
0.0
  9
$SKPOLY
 70
     0
  9
$TDCREATE
 40
2455296.500854491
  9
$TDUCREATE
 40
2455296.459187824
  9
$TDUPDATE
 40
2455296.503248877
  9
$TDUUPDATE
 40
2455296.461582211
  9
$TDINDWG
 40
0.0023951042
  9
$TDUSRTIMER
 40
0.0023951042
  9
$USRTIMER
 70
     1
  9
$ANGBASE
 50
0.0
  9
$ANGDIR
 70
     0
  9
$PDMODE
 70
     0
  9
$PDSIZE
 40
0.0
  9
$PLINEWID
 40
0.0
  9
$SPLFRAME
 70
     0
  9
$SPLINETYPE
 70
     6
  9
$SPLINESEGS
 70
     8
  9
$HANDSEED
  5
1D2B
  9
$SURFTAB1
 70
     6
  9
$SURFTAB2
 70
     6
  9
$SURFTYPE
 70
     6
  9
$SURFU
 70
     6
  9
$SURFV
 70
     6
  9
$UCSBASE
  2

  9
$UCSNAME
  2

  9
$UCSORG
 10
0.0
 20
0.0
 30
0.0
  9
$UCSXDIR
 10
1.0
 20
0.0
 30
0.0
  9
$UCSYDIR
 10
0.0
 20
1.0
 30
0.0
  9
$UCSORTHOREF
  2

  9
$UCSORTHOVIEW
 70
     0
  9
$UCSORGTOP
 10
0.0
 20
0.0
 30
0.0
  9
$UCSORGBOTTOM
 10
0.0
 20
0.0
 30
0.0
  9
$UCSORGLEFT
 10
0.0
 20
0.0
 30
0.0
  9
$UCSORGRIGHT
 10
0.0
 20
0.0
 30
0.0
  9
$UCSORGFRONT
 10
0.0
 20
0.0
 30
0.0
  9
$UCSORGBACK
 10
0.0
 20
0.0
 30
0.0
  9
$PUCSBASE
  2

  9
$PUCSNAME
  2

  9
$PUCSORG
 10
0.0
 20
0.0
 30
0.0
  9
$PUCSXDIR
 10
1.0
 20
0.0
 30
0.0
  9
$PUCSYDIR
 10
0.0
 20
1.0
 30
0.0
  9
$PUCSORTHOREF
  2

  9
$PUCSORTHOVIEW
 70
     0
  9
$PUCSORGTOP
 10
0.0
 20
0.0
 30
0.0
  9
$PUCSORGBOTTOM
 10
0.0
 20
0.0
 30
0.0
  9
$PUCSORGLEFT
 10
0.0
 20
0.0
 30
0.0
  9
$PUCSORGRIGHT
 10
0.0
 20
0.0
 30
0.0
  9
$PUCSORGFRONT
 10
0.0
 20
0.0
 30
0.0
  9
$PUCSORGBACK
 10
0.0
 20
0.0
 30
0.0
  9
$USERI1
 70
     0
  9
$USERI2
 70
     0
  9
$USERI3
 70
     0
  9
$USERI4
 70
     0
  9
$USERI5
 70
     0
  9
$USERR1
 40
0.0
  9
$USERR2
 40
0.0
  9
$USERR3
 40
0.0
  9
$USERR4
 40
0.0
  9
$USERR5
 40
0.0
  9
$WORLDVIEW
 70
     1
  9
$SHADEDGE
 70
     3
  9
$SHADEDIF
 70
    70
  9
$TILEMODE
 70
     1
  9
$MAXACTVP
 70
    64
  9
$PINSBASE
 10
0.0
 20
0.0
 30
0.0
  9
$PLIMCHECK
 70
     0
  9
$PEXTMIN
 10
1.000000000000000E+20
 20
1.000000000000000E+20
 30
1.000000000000000E+20
  9
$PEXTMAX
 10
-1.000000000000000E+20
 20
-1.000000000000000E+20
 30
-1.000000000000000E+20
  9
$PLIMMIN
 10
0.0
 20
0.0
  9
$PLIMMAX
 10
420.0
 20
297.0
  9
$UNITMODE
 70
     0
  9
$VISRETAIN
 70
     1
  9
$PLINEGEN
 70
     0
  9
$PSLTSCALE
 70
     1
  9
$TREEDEPTH
 70
  3020
  9
$CMLSTYLE
  2
Standard
  9
$CMLJUST
 70
     0
  9
$CMLSCALE
 40
20.0
  9
$PROXYGRAPHICS
 70
     1
  9
$MEASUREMENT
 70
     1
  9
$CELWEIGHT
370
    -1
  9
$ENDCAPS
280
     0
  9
$JOINSTYLE
280
     0
  9
$LWDISPLAY
290
     0
  9
$INSUNITS
 70
     4
  9
$HYPERLINKBASE
  1

  9
$STYLESHEET
  1
sanindusa.ctb
  9
$XEDIT
290
     1
  9
$CEPSNTYPE
380
     0
  9
$PSTYLEMODE
290
     1
  9
$FINGERPRINTGUID
  2
{822D2157-B651-41FD-A5C9-4465EECCC163}
  9
$VERSIONGUID
  2
{5164606B-4BAB-40A8-8645-496EEA7E1993}
  9
$EXTNAMES
290
     1
  9
$PSVPSCALE
 40
0.0
  9
$OLESTARTUP
290
     0
  0
ENDSEC
  0
SECTION
  2
CLASSES
  0
CLASS
  1
ACDBDICTIONARYWDFLT
  2
AcDbDictionaryWithDefault
  3
ObjectDBX Classes
 90
        0
280
     0
281
     0
  0
CLASS
  1
ACDBPLACEHOLDER
  2
AcDbPlaceHolder
  3
ObjectDBX Classes
 90
        0
280
     0
281
     0
  0
CLASS
  1
LAYOUT
  2
AcDbLayout
  3
ObjectDBX Classes
 90
        0
280
     0
281
     0
  0
CLASS
  1
DICTIONARYVAR
  2
AcDbDictionaryVar
  3
ObjectDBX Classes
 90
        0
280
     0
281
     0
  0
CLASS
  1
DIMASSOC
  2
AcDbDimAssoc
  3
"AcDbDimAssoc|Product Desc:     AcDim ARX App For Dimension|Company:          Autodesk, Inc.|WEB Address:      www.autodesk.com"
 90
        0
280
     0
281
     0
  0
CLASS
  1
TABLESTYLE
  2
AcDbTableStyle
  3
ObjectDBX Classes
 90
     4095
280
     0
281
     0
  0
CLASS
  1
MATERIAL
  2
AcDbMaterial
  3
ObjectDBX Classes
 90
     1153
280
     0
281
     0
  0
CLASS
  1
VISUALSTYLE
  2
AcDbVisualStyle
  3
ObjectDBX Classes
 90
     4095
280
     0
281
     0
  0
CLASS
  1
SCALE
  2
AcDbScale
  3
ObjectDBX Classes
 90
     1153
280
     0
281
     0
  0
CLASS
  1
MLEADERSTYLE
  2
AcDbMLeaderStyle
  3
ACDB_MLEADERSTYLE_CLASS
 90
     4095
280
     0
281
     0
  0
CLASS
  1
SORTENTSTABLE
  2
AcDbSortentsTable
  3
ObjectDBX Classes
 90
        0
280
     0
281
     0
  0
CLASS
  1
AEC_REFEDIT_STATUS_TRACKER
  2
AecDbRefEditStatusTracker
  3
AecArchBase60|Product Desc: Autodesk Architectural Desktop 2007 |Company: Autodesk,Inc. |WEB Address: www.autodesk.com
 90
      129
280
     0
281
     0
  0
CLASS
  1
NPOCOLLECTION
  2
AcDbImpNonPersistentObjectsCollection
  3
ObjectDBX Classes
 90
     1153
280
     0
281
     0
  0
CLASS
  1
CELLSTYLEMAP
  2
AcDbCellStyleMap
  3
ObjectDBX Classes
 90
     1152
280
     0
281
     0
  0
ENDSEC
  0
SECTION
  2
TABLES
  0
TABLE
  2
VPORT
  5
8
330
0
100
AcDbSymbolTable
 70
     1
  0
VPORT
  5
1068
330
8
100
AcDbSymbolTableRecord
100
AcDbViewportTableRecord
  2
*Active
 70
     0
 10
0.0
 20
0.0
 11
1.0
 21
1.0
 12
6967.85997014301
 22
2692.421745345447
 13
0.0
 23
0.0
 14
10.0
 24
10.0
 15
10.0
 25
10.0
 16
0.0
 26
0.0
 36
1.0
 17
0.0
 27
0.0
 37
0.0
 40
2.346629163621178
 41
1.635233160621761
 42
50.0
 43
0.0
 44
0.0
 50
0.0
 51
0.0
 71
     0
 72
   100
 73
     1
 74
     2
 75
     0
 76
     0
 77
     0
 78
     0
281
     0
 65
     1
110
0.0
120
0.0
130
0.0
111
1.0
121
0.0
131
0.0
112
0.0
122
1.0
132
0.0
 79
     0
146
0.0
  0
ENDTAB
  0
TABLE
  2
LTYPE
  5
5
330
0
100
AcDbSymbolTable
 70
     5
  0
LTYPE
  5
14
330
5
100
AcDbSymbolTableRecord
100
AcDbLinetypeTableRecord
  2
ByBlock
 70
     0
  3

 72
    65
 73
     0
 40
0.0
  0
LTYPE
  5
15
330
5
100
AcDbSymbolTableRecord
100
AcDbLinetypeTableRecord
  2
ByLayer
 70
     0
  3

 72
    65
 73
     0
 40
0.0
  0
LTYPE
  5
16
330
5
100
AcDbSymbolTableRecord
100
AcDbLinetypeTableRecord
  2
Continuous
 70
     0
  3
Solid line
 72
    65
 73
     0
 40
0.0
  0
LTYPE
  5
2D
330
5
100
AcDbSymbolTableRecord
100
AcDbLinetypeTableRecord
  2
DASHDOT
 70
     0
  3
Dash dot __ . __ . __ . __ . __ . __ . __ . __
 72
    65
 73
     4
 40
25.4
 49
12.7
 74
     0
 49
-6.349999999999999
 74
     0
 49
0.0
 74
     0
 49
-6.349999999999999
 74
     0
  0
LTYPE
  5
2E
330
5
100
AcDbSymbolTableRecord
100
AcDbLinetypeTableRecord
  2
HIDDEN
 70
     0
  3
Hidden __ __ __ __ __ __ __ __ __ __ __ __ __ _
 72
    65
 73
     2
 40
9.524999999999998
 49
6.349999999999999
 74
     0
 49
-3.174999999999999
 74
     0
  0
LTYPE
  5
C75
330
5
100
AcDbSymbolTableRecord
100
AcDbLinetypeTableRecord
  2
AM_ISO02W050
 70
     0
  3
__ __ __ __ __ __ __ __ __ __ __ __ __ __ __
 72
    65
 73
     2
 40
7.5
 49
6.0
 74
     0
 49
-1.5
 74
     0
  0
LTYPE
  5
C76
330
5
100
AcDbSymbolTableRecord
100
AcDbLinetypeTableRecord
  2
AM_ISO08W050
 70
     0
  3
____ . ____ . ____ . ____ . ____ . ____ . ____
 72
    65
 73
     4
 40
18.0
 49
12.0
 74
     0
 49
-1.5
 74
     0
 49
3.0
 74
     0
 49
-1.5
 74
     0
  0
ENDTAB
  0
TABLE
  2
LAYER
  5
2
102
{ACAD_XDICTIONARY
360
1051
102
}
330
0
100
AcDbSymbolTable
 70
    17
  0
LAYER
  5
10
102
{ACAD_XDICTIONARY
360
1C75
102
}
330
2
100
AcDbSymbolTableRecord
100
AcDbLayerTableRecord
  2
0
 70
     0
 62
     7
  6
Continuous
370
    -3
390
F
  0
LAYER
  5
2F
102
{ACAD_XDICTIONARY
360
1C77
102
}
330
2
100
AcDbSymbolTableRecord
100
AcDbLayerTableRecord
  2
1
 70
     0
 62
     1
  6
Continuous
370
    -3
390
F
  0
LAYER
  5
30
102
{ACAD_XDICTIONARY
360
1C79
102
}
330
2
100
AcDbSymbolTableRecord
100
AcDbLayerTableRecord
  2
2
 70
     0
 62
     2
  6
Continuous
370
    -3
390
F
  0
LAYER
  5
31
102
{ACAD_XDICTIONARY
360
1C7B
102
}
330
2
100
AcDbSymbolTableRecord
100
AcDbLayerTableRecord
  2
3
 70
     0
 62
     3
  6
Continuous
370
    -3
390
F
  0
LAYER
  5
32
102
{ACAD_XDICTIONARY
360
1C7D
102
}
330
2
100
AcDbSymbolTableRecord
100
AcDbLayerTableRecord
  2
4
 70
     0
 62
     4
  6
Continuous
370
    -3
390
F
  0
LAYER
  5
33
102
{ACAD_XDICTIONARY
360
1C7F
102
}
330
2
100
AcDbSymbolTableRecord
100
AcDbLayerTableRecord
  2
5
 70
     0
 62
     5
  6
Continuous
370
    -3
390
F
  0
LAYER
  5
34
102
{ACAD_XDICTIONARY
360
1C81
102
}
330
2
100
AcDbSymbolTableRecord
100
AcDbLayerTableRecord
  2
6
 70
     0
 62
     6
  6
Continuous
370
    -3
390
F
  0
LAYER
  5
35
102
{ACAD_XDICTIONARY
360
1C83
102
}
330
2
100
AcDbSymbolTableRecord
100
AcDbLayerTableRecord
  2
7
 70
     0
 62
     7
  6
Continuous
370
    -3
390
F
  0
LAYER
  5
36
102
{ACAD_XDICTIONARY
360
1C85
102
}
330
2
100
AcDbSymbolTableRecord
100
AcDbLayerTableRecord
  2
cen
 70
     0
 62
     7
  6
DASHDOT
370
    -3
390
F
  0
LAYER
  5
37
102
{ACAD_XDICTIONARY
360
1C87
102
}
330
2
100
AcDbSymbolTableRecord
100
AcDbLayerTableRecord
  2
hid
 70
     0
 62
     7
  6
HIDDEN
370
    -3
390
F
  0
LAYER
  5
5D6
102
{ACAD_XDICTIONARY
360
1C89
102
}
330
2
100
AcDbSymbolTableRecord
100
AcDbLayerTableRecord
  2
hatch
 70
     0
 62
     9
  6
Continuous
370
    -3
390
F
  0
LAYER
  5
8AF
102
{ACAD_XDICTIONARY
360
1C8B
102
}
330
2
100
AcDbSymbolTableRecord
100
AcDbLayerTableRecord
  2
9
 70
     0
 62
     9
  6
Continuous
370
    -3
390
F
  0
LAYER
  5
8F8
102
{ACAD_XDICTIONARY
360
1C8D
102
}
330
2
100
AcDbSymbolTableRecord
100
AcDbLayerTableRecord
  2
leg fin
 70
     0
 62
     9
  6
Continuous
370
    -3
390
F
  0
LAYER
  5
91D
102
{ACAD_XDICTIONARY
360
1C8F
102
}
330
2
100
AcDbSymbolTableRecord
100
AcDbLayerTableRecord
  2
cotas
 70
     0
 62
     1
  6
Continuous
370
    -3
390
F
  0
LAYER
  5
92F
330
2
100
AcDbSymbolTableRecord
100
AcDbLayerTableRecord
  2
Defpoints
 70
     0
 62
     7
  6
Continuous
290
     0
370
    -3
390
F
  0
LAYER
  5
C7B
102
{ACAD_XDICTIONARY
360
1C91
102
}
330
2
100
AcDbSymbolTableRecord
100
AcDbLayerTableRecord
  2
SANINDUSA
 70
     0
 62
     3
  6
Continuous
370
    -3
390
F
  0
LAYER
  5
1060
102
{ACAD_XDICTIONARY
360
1C93
102
}
330
2
100
AcDbSymbolTableRecord
100
AcDbLayerTableRecord
  2
hid1
 70
     0
 62
     9
  6
HIDDEN
370
    -3
390
F
1001
AcAecLayerStandard
1000

1000

  0
ENDTAB
  0
TABLE
  2
STYLE
  5
3
330
0
100
AcDbSymbolTable
 70
     4
  0
STYLE
  5
11
330
3
100
AcDbSymbolTableRecord
100
AcDbTextStyleTableRecord
  2
Standard
 70
     0
 40
0.0
 41
1.0
 50
0.0
 71
     0
 42
2.5
  3
Avgardn.ttf
  4

1001
ACAD
1000
AvantGarde Bk BT
1071
       34
  0
STYLE
  5
2C
330
3
100
AcDbSymbolTableRecord
100
AcDbTextStyleTableRecord
  2

 70
     1
 40
0.0
 41
1.0
 50
0.0
 71
     0
 42
2.5
  3
ltypeshp.shx
  4

  0
STYLE
  5
91F
330
3
100
AcDbSymbolTableRecord
100
AcDbTextStyleTableRecord
  2
SANINDUSA
 70
     0
 40
0.0
 41
1.0
 50
0.0
 71
     0
 42
2.5
  3
verdana.TTF
  4

1001
ACAD
1000
Verdana
1071
       34
  0
STYLE
  5
C7C
330
3
100
AcDbSymbolTableRecord
100
AcDbTextStyleTableRecord
  2
futura
 70
     0
 40
0.0
 41
1.0
 50
0.0
 71
     0
 42
2.5
  3
ZURCHN.TTF
  4

1001
ACAD
1000
Zurich BT
1071
       34
  0
ENDTAB
  0
TABLE
  2
VIEW
  5
6
330
0
100
AcDbSymbolTable
 70
     0
  0
ENDTAB
  0
TABLE
  2
UCS
  5
7
330
0
100
AcDbSymbolTable
 70
     0
  0
ENDTAB
  0
TABLE
  2
APPID
  5
9
330
0
100
AcDbSymbolTable
 70
    12
  0
APPID
  5
12
330
9
100
AcDbSymbolTableRecord
100
AcDbRegAppTableRecord
  2
ACAD
 70
     0
  0
APPID
  5
3A
330
9
100
AcDbSymbolTableRecord
100
AcDbRegAppTableRecord
  2
DCO15
 70
     0
  0
APPID
  5
EEE
330
9
100
AcDbSymbolTableRecord
100
AcDbRegAppTableRecord
  2
ACAD_DSTYLE_DIMTEXT_FILL
 70
     0
  0
APPID
  5
EEF
330
9
100
AcDbSymbolTableRecord
100
AcDbRegAppTableRecord
  2
ACAD_DSTYLE_DIMEXT_LENGTH
 70
     0
  0
APPID
  5
EF0
330
9
100
AcDbSymbolTableRecord
100
AcDbRegAppTableRecord
  2
ACAD_DSTYLE_DIMEXT_ENABLED
 70
     0
  0
APPID
  5
EF1
330
9
100
AcDbSymbolTableRecord
100
AcDbRegAppTableRecord
  2
ACAD_DSTYLE_DIM_LINETYPE
 70
     0
  0
APPID
  5
EF2
330
9
100
AcDbSymbolTableRecord
100
AcDbRegAppTableRecord
  2
ACAD_DSTYLE_DIM_EXT1_LINETYPE
 70
     0
  0
APPID
  5
EF3
330
9
100
AcDbSymbolTableRecord
100
AcDbRegAppTableRecord
  2
ACAD_DSTYLE_DIM_EXT2_LINETYPE
 70
     0
  0
APPID
  5
FAF
330
9
100
AcDbSymbolTableRecord
100
AcDbRegAppTableRecord
  2
ACAD_DSTYLE_DIMJOGGED_JOGANGLE_SYMBOL
 70
     0
  0
APPID
  5
1013
330
9
100
AcDbSymbolTableRecord
100
AcDbRegAppTableRecord
  2
ACAD_DSTYLE_DIMARC_LENGTH_SYMBOL
 70
     0
  0
APPID
  5
1061
330
9
100
AcDbSymbolTableRecord
100
AcDbRegAppTableRecord
  2
AcAecLayerStandard
 70
     0
  0
APPID
  5
1D1C
330
9
100
AcDbSymbolTableRecord
100
AcDbRegAppTableRecord
  2
ACAD_MLEADERVER
 70
     0
  0
ENDTAB
  0
TABLE
  2
DIMSTYLE
  5
A
330
0
100
AcDbSymbolTable
 70
     3
100
AcDbDimStyleTable
 71
     1
340
921
  0
DIMSTYLE
105
45
330
A
100
AcDbSymbolTableRecord
100
AcDbDimStyleTableRecord
  2
STANDARD
 70
     0
289
     0
340
11
  0
DIMSTYLE
105
921
330
A
100
AcDbSymbolTableRecord
100
AcDbDimStyleTableRecord
  2
SANINDUSA
 70
     0
 41
2.0
 42
1.0
 43
1.0
 44
1.0
 73
     0
 74
     0
 77
     1
 78
     8
140
2.0
141
0.0
143
0.03937007874016
147
1.0
171
     3
172
     1
176
   256
177
   256
178
   256
179
     1
271
     1
272
     1
274
     3
278
    44
283
     0
284
     8
340
91F
371
    -1
372
    -1
1001
ACAD_DSTYLE_DIMJOGGED_JOGANGLE_SYMBOL
1070
   384
1040
1.570796326794896
  0
DIMSTYLE
105
C7D
330
A
100
AcDbSymbolTableRecord
100
AcDbDimStyleTableRecord
  2
AM_ISO
 70
     0
  4
"
 41
2.5
 42
1.0
 43
10.0
 44
1.0
 47
0.1
 48
0.1
 73
     0
 74
     0
 77
     1
 78
     8
 79
     2
140
3.5
141
0.0
143
0.0393701
146
0.71
147
1.5
172
     1
176
   256
177
   256
178
     2
271
     2
272
     3
274
     4
283
     0
284
     8
340
11
371
    -1
372
    -1
  0
ENDTAB
  0
TABLE
  2
BLOCK_RECORD
  5
1
330
0
100
AcDbSymbolTable
 70
   109
  0
BLOCK_RECORD
  5
1F
330
1
100
AcDbSymbolTableRecord
100
AcDbBlockTableRecord
  2
*Model_Space
340
22
  0
BLOCK_RECORD
  5
1B
330
1
100
AcDbSymbolTableRecord
100
AcDbBlockTableRecord
  2
*Paper_Space
340
1E
  0
BLOCK_RECORD
  5
23
330
1
100
AcDbSymbolTableRecord
100
AcDbBlockTableRecord
  2
*Paper_Space0
340
26
  0
BLOCK_RECORD
  5
919
330
1
100
AcDbSymbolTableRecord
100
AcDbBlockTableRecord
  2
_DotSmall
340
0
  0
BLOCK_RECORD
  5
922
330
1
100
AcDbSymbolTableRecord
100
AcDbBlockTableRecord
  2
base para cotas
340
0
310
2800000020000000200000000100080000000000000400000000000000000000000000000000000000000000000080000080000000808000800000008000800080800000C0C0C000C0DCC000F0CAA6000020400000206000002080000020A0000020C0000020E00000400000004020000040400000406000004080000040A0
310
000040C0000040E00000600000006020000060400000606000006080000060A0000060C0000060E00000800000008020000080400000806000008080000080A0000080C0000080E00000A0000000A0200000A0400000A0600000A0800000A0A00000A0C00000A0E00000C0000000C0200000C0400000C0600000C0800000C0
310
A00000C0C00000C0E00000E0000000E0200000E0400000E0600000E0800000E0A00000E0C00000E0E00040000000400020004000400040006000400080004000A0004000C0004000E00040200000402020004020400040206000402080004020A0004020C0004020E000404000004040200040404000404060004040800040
310
40A0004040C0004040E00040600000406020004060400040606000406080004060A0004060C0004060E00040800000408020004080400040806000408080004080A0004080C0004080E00040A0000040A0200040A0400040A0600040A0800040A0A00040A0C00040A0E00040C0000040C0200040C0400040C0600040C08000
310
40C0A00040C0C00040C0E00040E0000040E0200040E0400040E0600040E0800040E0A00040E0C00040E0E00080000000800020008000400080006000800080008000A0008000C0008000E00080200000802020008020400080206000802080008020A0008020C0008020E00080400000804020008040400080406000804080
310
008040A0008040C0008040E00080600000806020008060400080606000806080008060A0008060C0008060E00080800000808020008080400080806000808080008080A0008080C0008080E00080A0000080A0200080A0400080A0600080A0800080A0A00080A0C00080A0E00080C0000080C0200080C0400080C0600080C0
310
800080C0A00080C0C00080C0E00080E0000080E0200080E0400080E0600080E0800080E0A00080E0C00080E0E000C0000000C0002000C0004000C0006000C0008000C000A000C000C000C000E000C0200000C0202000C0204000C0206000C0208000C020A000C020C000C020E000C0400000C0402000C0404000C0406000C0
310
408000C040A000C040C000C040E000C0600000C0602000C0604000C0606000C0608000C060A000C060C000C060E000C0800000C0802000C0804000C0806000C0808000C080A000C080C000C080E000C0A00000C0A02000C0A04000C0A06000C0A08000C0A0A000C0A0C000C0A0E000C0C00000C0C02000C0C04000C0C06000
310
C0C08000C0C0A000F0FBFF00A4A0A000808080000000FF0000FF000000FFFF00FF000000FF00FF00FFFF0000FFFFFF00A4A4A4A4A4A4A4A4A4A4A4A4A4A4A4A4A4A4A4A4A4A4A4A4A4A4A4A4A4A4A4A4A4A4A4A4A4A4A4A4A4A4A4A4A4A4A4A4A4A4A4A4A4A4A4A4A4A4A4A4A4A4A4A4A4A4A4A4A4A4A4A4A4A4A4A4A4A4A4
310
A4A4A4A4A4A4A4A4A4A4A4A4A4A4A4A4A4A4A4A4A4A4A4A4A4A4A4A4A4A4A4A4A4A4A4A4A4A4A4A4A4A4A4A4A4A4A4A4A4A4A4A4A4A4A4A4A4A4A4A4A4A4A4A4A4A4A4A4A4A4A4A4A4A4A4A4A4A4A4A4A4A4A4A4A4A4A4A4A4A4A4A4A4A4A4A4A4A4A4A4A4A4A4A4A4A4A4A4A4A4A4A4A4A4A4A4A4A4A4A4A4A4A4A4A4A4A4
310
A4A4A4A4A4A4A4A4A4A4A4A4A4A4A4A4A4A4A4A4A4A4A4A4A4A4A4A4A4A4A4A4A4A4A4A4A4A4A4A4A4A4A4A4A4A4A4A4A4A4A4A4A4A4A4A4A4A4A4A4A4A4A4A4A4A4A4A4A4A4A4A4A4A4A4A4A4A4A4A4A4A4A4A4A4A4A4A4A4A4A4A4A4A4A4A4A4A4A4A4A4A4A4A4A4A4A4A4A4A4A4A4A4A4A4A4A4A4A4A4A4A4A4A4A4A4A4
310
A4A4A4A4A4A4A4A4A4A4A4A4A4A4A4A4A4A4A4A4A4A4A4A4A4A4A4A4A4A4A4A4A4A4A4A4A4A4A4A4A4A4A4A4A4A4A4A4A4A4A4A4A4A4A4A4A4A4A4A4A4A4A4A4A4A4A4A4A4A4A4A4A4A4A4A4A4A4A4A4A4A4A4A4A4A4A4A4A4A4A4A4A4A4A4A4A4A4A4A4A4A4A4A4A4A4A4A4A4A4A4A4A4A4A4A4F9F9F9F9F9F9F9F9F9F9F9
310
F9F9F9F9F9F9F9F9F9F9F9F9F9F9F9F9F9F9F9A4A4F9F9F9F9F9F9F9F9F9F9F9F9F9F9F9F9F9F9F9F9F9F9F9F9F9F9F9F9F9F9A4A4F9F9F9F9F9F9F9F9F9F9F9F9F9F9F9F9F9F9F9F9F9F9F9F9F9F9F9F9F9F9A4A4F9A4A4A4A4A4A4A4A4A4A4A4A4A4A4A4A4A4A4A4A4A4A4A4A4A4A4A4A4F9A4A4A4A4A4A4A4A4A4A4A4A4
310
A4A4A4A4A4A4A4A4A4A4A4A4A4A4A4A4A4A4A4A4A4A4A4A4A4A4A4A4A4A4A4A4A4A4A4A4A4A4A4A4A4A4A4A4A4A4A4A4A4A4A4A4A4A4A4A4A4A4A4A4A4A4A4A4A4A4A4A4A4A4A4A4A4A4A4A4A4A4A4A4A4A4A4A4A4A4A4A4A4A4A4A4A4A4A4A4A4A4A4A4A4A4A4A4A4A4A4A4A4A4A4A4A4A4A4A4A4A4A4A4A4A4A4A4A4A4A4
310
A4A4A4A4A4A4A4A4A4A4A4A4A4A4A4A4A4A4A4A4A4A4A4A4A4A4A4A4A4A4A4A4A4A4A4A4A4A4A4A4A4A4A4A4A4A4A4A4A4A4A4A4A4A4A4A4A4A4A4A4A4A4A4A4A4A4A4A4A4A4A4A4A4A4A4A4A4A4A4A4A4A4A4A4A4A4A4A4A4A4A4A4A4A4A4A4A4A4A4A4A4A4A4A4A4A4A4A4A4A4A4A4A4A4A4A4A4A4A4A4A4A4A4A4A4A4A4
310
A4A4A4A4A4A4A4A4A4A4A4A4A4A4A4A4A4A4A4A4A4A4A4A4A4A4A4A4A4A4A4A4A4A4A4A4A4A4A4A4A4A4A4A4A4A4A4A4A4A4A4A4A4A4A4A4A4A4A4A4A4A4A4A4A4A4A4A4A4A4A4A4A4A4A4A4A4A4A4A4A4A4A4A4A4A4A4A4A4A4A4A4A4A4A4A4A4A4A4A4A4A4A4A4A4A4A4A4A4A4A4A4A4A4A4A4A4A4A4A4A4A4A4A4A4A4A4
310
A4A4A4A4A4A4A4A4A4A4A4A4A4A4A4A4A4A4A4A4A4A4A4A4A4A4A4A4A4A4A4A4A4A4A4A4A4A4A4A4A4A4A4A4A4A4A4A4A4A4A4A4A4A4A4A4
1001
ACAD
1000
DesignCenter Data
1002
{
1070
     1
1070
     4
1002
}
  0
BLOCK_RECORD
  5
AA8
330
1
100
AcDbSymbolTableRecord
100
AcDbBlockTableRecord
  2
_CLOSED
340
0
  0
BLOCK_RECORD
  5
B79
330
1
100
AcDbSymbolTableRecord
100
AcDbBlockTableRecord
  2
nota revisoes
340
0
1001
ACAD
1000
DesignCenter Data
1002
{
1070
     1
1070
     4
1002
}
  0
BLOCK_RECORD
  5
B8E
330
1
100
AcDbSymbolTableRecord
100
AcDbBlockTableRecord
  2
a3l
340
0
1001
ACAD
1000
DesignCenter Data
1002
{
1070
     1
1070
     4
1002
}
  0
BLOCK_RECORD
  5
B9E
330
1
100
AcDbSymbolTableRecord
100
AcDbBlockTableRecord
  2
legenda desenvolvimento
340
0
1001
ACAD
1000
DesignCenter Data
1002
{
1070
     1
1070
     4
1002
}
  0
BLOCK_RECORD
  5
10B3
330
1
100
AcDbSymbolTableRecord
100
AcDbBlockTableRecord
  2
*D7
340
0
  0
BLOCK_RECORD
  5
10BF
330
1
100
AcDbSymbolTableRecord
100
AcDbBlockTableRecord
  2
*D8
340
0
  0
BLOCK_RECORD
  5
10CB
330
1
100
AcDbSymbolTableRecord
100
AcDbBlockTableRecord
  2
*D9
340
0
  0
BLOCK_RECORD
  5
10D7
330
1
100
AcDbSymbolTableRecord
100
AcDbBlockTableRecord
  2
*D10
340
0
  0
BLOCK_RECORD
  5
10E3
330
1
100
AcDbSymbolTableRecord
100
AcDbBlockTableRecord
  2
*D11
340
0
  0
BLOCK_RECORD
  5
10EF
330
1
100
AcDbSymbolTableRecord
100
AcDbBlockTableRecord
  2
*D12
340
0
  0
BLOCK_RECORD
  5
10FB
330
1
100
AcDbSymbolTableRecord
100
AcDbBlockTableRecord
  2
*D13
340
0
  0
BLOCK_RECORD
  5
1107
330
1
100
AcDbSymbolTableRecord
100
AcDbBlockTableRecord
  2
*D14
340
0
  0
BLOCK_RECORD
  5
1113
330
1
100
AcDbSymbolTableRecord
100
AcDbBlockTableRecord
  2
*D15
340
0
  0
BLOCK_RECORD
  5
1120
330
1
100
AcDbSymbolTableRecord
100
AcDbBlockTableRecord
  2
*D16
340
0
  0
BLOCK_RECORD
  5
112C
330
1
100
AcDbSymbolTableRecord
100
AcDbBlockTableRecord
  2
*D17
340
0
  0
BLOCK_RECORD
  5
1138
330
1
100
AcDbSymbolTableRecord
100
AcDbBlockTableRecord
  2
*D18
340
0
  0
BLOCK_RECORD
  5
1144
330
1
100
AcDbSymbolTableRecord
100
AcDbBlockTableRecord
  2
*D19
340
0
  0
BLOCK_RECORD
  5
1150
330
1
100
AcDbSymbolTableRecord
100
AcDbBlockTableRecord
  2
*D20
340
0
  0
BLOCK_RECORD
  5
115E
330
1
100
AcDbSymbolTableRecord
100
AcDbBlockTableRecord
  2
*D21
340
0
  0
BLOCK_RECORD
  5
116A
330
1
100
AcDbSymbolTableRecord
100
AcDbBlockTableRecord
  2
*D22
340
0
  0
BLOCK_RECORD
  5
1176
330
1
100
AcDbSymbolTableRecord
100
AcDbBlockTableRecord
  2
*D23
340
0
  0
BLOCK_RECORD
  5
1182
330
1
100
AcDbSymbolTableRecord
100
AcDbBlockTableRecord
  2
*D24
340
0
  0
BLOCK_RECORD
  5
118A
330
1
100
AcDbSymbolTableRecord
100
AcDbBlockTableRecord
  2
*D25
340
0
  0
BLOCK_RECORD
  5
1192
330
1
100
AcDbSymbolTableRecord
100
AcDbBlockTableRecord
  2
*D26
340
0
  0
BLOCK_RECORD
  5
119A
330
1
100
AcDbSymbolTableRecord
100
AcDbBlockTableRecord
  2
*D27
340
0
  0
BLOCK_RECORD
  5
11A2
330
1
100
AcDbSymbolTableRecord
100
AcDbBlockTableRecord
  2
*D28
340
0
  0
BLOCK_RECORD
  5
11AB
330
1
100
AcDbSymbolTableRecord
100
AcDbBlockTableRecord
  2
*D29
340
0
  0
BLOCK_RECORD
  5
11B4
330
1
100
AcDbSymbolTableRecord
100
AcDbBlockTableRecord
  2
*D30
340
0
  0
BLOCK_RECORD
  5
11BD
330
1
100
AcDbSymbolTableRecord
100
AcDbBlockTableRecord
  2
*D31
340
0
  0
BLOCK_RECORD
  5
11C8
330
1
100
AcDbSymbolTableRecord
100
AcDbBlockTableRecord
  2
*D32
340
0
  0
BLOCK_RECORD
  5
11D4
330
1
100
AcDbSymbolTableRecord
100
AcDbBlockTableRecord
  2
*D33
340
0
  0
BLOCK_RECORD
  5
11E0
330
1
100
AcDbSymbolTableRecord
100
AcDbBlockTableRecord
  2
*D34
340
0
  0
BLOCK_RECORD
  5
11EC
330
1
100
AcDbSymbolTableRecord
100
AcDbBlockTableRecord
  2
*D35
340
0
  0
BLOCK_RECORD
  5
11FA
330
1
100
AcDbSymbolTableRecord
100
AcDbBlockTableRecord
  2
*D36
340
0
  0
BLOCK_RECORD
  5
1202
330
1
100
AcDbSymbolTableRecord
100
AcDbBlockTableRecord
  2
*D37
340
0
  0
BLOCK_RECORD
  5
120A
330
1
100
AcDbSymbolTableRecord
100
AcDbBlockTableRecord
  2
*D38
340
0
  0
BLOCK_RECORD
  5
1218
330
1
100
AcDbSymbolTableRecord
100
AcDbBlockTableRecord
  2
*D39
340
0
  0
BLOCK_RECORD
  5
1226
330
1
100
AcDbSymbolTableRecord
100
AcDbBlockTableRecord
  2
*D40
340
0
  0
BLOCK_RECORD
  5
1234
330
1
100
AcDbSymbolTableRecord
100
AcDbBlockTableRecord
  2
*D41
340
0
  0
BLOCK_RECORD
  5
1242
330
1
100
AcDbSymbolTableRecord
100
AcDbBlockTableRecord
  2
*D42
340
0
  0
BLOCK_RECORD
  5
124E
330
1
100
AcDbSymbolTableRecord
100
AcDbBlockTableRecord
  2
*D43
340
0
  0
BLOCK_RECORD
  5
125C
330
1
100
AcDbSymbolTableRecord
100
AcDbBlockTableRecord
  2
*D44
340
0
  0
BLOCK_RECORD
  5
1264
330
1
100
AcDbSymbolTableRecord
100
AcDbBlockTableRecord
  2
*D45
340
0
  0
BLOCK_RECORD
  5
126C
330
1
100
AcDbSymbolTableRecord
100
AcDbBlockTableRecord
  2
*D46
340
0
  0
BLOCK_RECORD
  5
1274
330
1
100
AcDbSymbolTableRecord
100
AcDbBlockTableRecord
  2
*D47
340
0
  0
BLOCK_RECORD
  5
127C
330
1
100
AcDbSymbolTableRecord
100
AcDbBlockTableRecord
  2
*D48
340
0
  0
BLOCK_RECORD
  5
128A
330
1
100
AcDbSymbolTableRecord
100
AcDbBlockTableRecord
  2
*D49
340
0
  0
BLOCK_RECORD
  5
1298
330
1
100
AcDbSymbolTableRecord
100
AcDbBlockTableRecord
  2
*D50
340
0
  0
BLOCK_RECORD
  5
12A6
330
1
100
AcDbSymbolTableRecord
100
AcDbBlockTableRecord
  2
*D51
340
0
  0
BLOCK_RECORD
  5
12AE
330
1
100
AcDbSymbolTableRecord
100
AcDbBlockTableRecord
  2
*D52
340
0
  0
BLOCK_RECORD
  5
12B6
330
1
100
AcDbSymbolTableRecord
100
AcDbBlockTableRecord
  2
*D53
340
0
  0
BLOCK_RECORD
  5
158B
330
1
100
AcDbSymbolTableRecord
100
AcDbBlockTableRecord
  2
*D55
340
0
  0
BLOCK_RECORD
  5
1599
330
1
100
AcDbSymbolTableRecord
100
AcDbBlockTableRecord
  2
*D56
340
0
  0
BLOCK_RECORD
  5
15A5
330
1
100
AcDbSymbolTableRecord
100
AcDbBlockTableRecord
  2
*D57
340
0
  0
BLOCK_RECORD
  5
15B1
330
1
100
AcDbSymbolTableRecord
100
AcDbBlockTableRecord
  2
*D58
340
0
  0
BLOCK_RECORD
  5
15BD
330
1
100
AcDbSymbolTableRecord
100
AcDbBlockTableRecord
  2
*D59
340
0
  0
BLOCK_RECORD
  5
15C9
330
1
100
AcDbSymbolTableRecord
100
AcDbBlockTableRecord
  2
*D60
340
0
  0
BLOCK_RECORD
  5
15D5
330
1
100
AcDbSymbolTableRecord
100
AcDbBlockTableRecord
  2
*D61
340
0
  0
BLOCK_RECORD
  5
15E1
330
1
100
AcDbSymbolTableRecord
100
AcDbBlockTableRecord
  2
*D62
340
0
  0
BLOCK_RECORD
  5
15ED
330
1
100
AcDbSymbolTableRecord
100
AcDbBlockTableRecord
  2
*D63
340
0
  0
BLOCK_RECORD
  5
15F9
330
1
100
AcDbSymbolTableRecord
100
AcDbBlockTableRecord
  2
*D64
340
0
  0
BLOCK_RECORD
  5
1605
330
1
100
AcDbSymbolTableRecord
100
AcDbBlockTableRecord
  2
*D65
340
0
  0
BLOCK_RECORD
  5
1611
330
1
100
AcDbSymbolTableRecord
100
AcDbBlockTableRecord
  2
*D66
340
0
  0
BLOCK_RECORD
  5
161D
330
1
100
AcDbSymbolTableRecord
100
AcDbBlockTableRecord
  2
*D67
340
0
  0
BLOCK_RECORD
  5
1629
330
1
100
AcDbSymbolTableRecord
100
AcDbBlockTableRecord
  2
*D68
340
0
  0
BLOCK_RECORD
  5
1635
330
1
100
AcDbSymbolTableRecord
100
AcDbBlockTableRecord
  2
*D69
340
0
  0
BLOCK_RECORD
  5
1641
330
1
100
AcDbSymbolTableRecord
100
AcDbBlockTableRecord
  2
*D70
340
0
  0
BLOCK_RECORD
  5
1649
330
1
100
AcDbSymbolTableRecord
100
AcDbBlockTableRecord
  2
*D71
340
0
  0
BLOCK_RECORD
  5
1651
330
1
100
AcDbSymbolTableRecord
100
AcDbBlockTableRecord
  2
*D72
340
0
  0
BLOCK_RECORD
  5
1659
330
1
100
AcDbSymbolTableRecord
100
AcDbBlockTableRecord
  2
*D73
340
0
  0
BLOCK_RECORD
  5
1661
330
1
100
AcDbSymbolTableRecord
100
AcDbBlockTableRecord
  2
*D74
340
0
  0
BLOCK_RECORD
  5
166A
330
1
100
AcDbSymbolTableRecord
100
AcDbBlockTableRecord
  2
*D75
340
0
  0
BLOCK_RECORD
  5
1673
330
1
100
AcDbSymbolTableRecord
100
AcDbBlockTableRecord
  2
*D76
340
0
  0
BLOCK_RECORD
  5
167C
330
1
100
AcDbSymbolTableRecord
100
AcDbBlockTableRecord
  2
*D77
340
0
  0
BLOCK_RECORD
  5
1687
330
1
100
AcDbSymbolTableRecord
100
AcDbBlockTableRecord
  2
*D78
340
0
  0
BLOCK_RECORD
  5
1693
330
1
100
AcDbSymbolTableRecord
100
AcDbBlockTableRecord
  2
*D79
340
0
  0
BLOCK_RECORD
  5
169F
330
1
100
AcDbSymbolTableRecord
100
AcDbBlockTableRecord
  2
*D80
340
0
  0
BLOCK_RECORD
  5
16AB
330
1
100
AcDbSymbolTableRecord
100
AcDbBlockTableRecord
  2
*D81
340
0
  0
BLOCK_RECORD
  5
16B9
330
1
100
AcDbSymbolTableRecord
100
AcDbBlockTableRecord
  2
*D82
340
0
  0
BLOCK_RECORD
  5
16D2
330
1
100
AcDbSymbolTableRecord
100
AcDbBlockTableRecord
  2
*D83
340
0
  0
BLOCK_RECORD
  5
16DE
330
1
100
AcDbSymbolTableRecord
100
AcDbBlockTableRecord
  2
*D84
340
0
  0
BLOCK_RECORD
  5
16EC
330
1
100
AcDbSymbolTableRecord
100
AcDbBlockTableRecord
  2
*D85
340
0
  0
BLOCK_RECORD
  5
16F4
330
1
100
AcDbSymbolTableRecord
100
AcDbBlockTableRecord
  2
*D86
340
0
  0
BLOCK_RECORD
  5
16FC
330
1
100
AcDbSymbolTableRecord
100
AcDbBlockTableRecord
  2
*D87
340
0
  0
BLOCK_RECORD
  5
1704
330
1
100
AcDbSymbolTableRecord
100
AcDbBlockTableRecord
  2
*D88
340
0
  0
BLOCK_RECORD
  5
170C
330
1
100
AcDbSymbolTableRecord
100
AcDbBlockTableRecord
  2
*D89
340
0
  0
BLOCK_RECORD
  5
171A
330
1
100
AcDbSymbolTableRecord
100
AcDbBlockTableRecord
  2
*D90
340
0
  0
BLOCK_RECORD
  5
1728
330
1
100
AcDbSymbolTableRecord
100
AcDbBlockTableRecord
  2
*D91
340
0
  0
BLOCK_RECORD
  5
1736
330
1
100
AcDbSymbolTableRecord
100
AcDbBlockTableRecord
  2
*D92
340
0
  0
BLOCK_RECORD
  5
173E
330
1
100
AcDbSymbolTableRecord
100
AcDbBlockTableRecord
  2
*D93
340
0
  0
BLOCK_RECORD
  5
1746
330
1
100
AcDbSymbolTableRecord
100
AcDbBlockTableRecord
  2
*D94
340
0
  0
BLOCK_RECORD
  5
1769
330
1
100
AcDbSymbolTableRecord
100
AcDbBlockTableRecord
  2
*D95
340
0
  0
BLOCK_RECORD
  5
1775
330
1
100
AcDbSymbolTableRecord
100
AcDbBlockTableRecord
  2
*D96
340
0
  0
BLOCK_RECORD
  5
178A
330
1
100
AcDbSymbolTableRecord
100
AcDbBlockTableRecord
  2
*D97
340
0
  0
BLOCK_RECORD
  5
1839
330
1
100
AcDbSymbolTableRecord
100
AcDbBlockTableRecord
  2
*D98
340
0
  0
BLOCK_RECORD
  5
1847
330
1
100
AcDbSymbolTableRecord
100
AcDbBlockTableRecord
  2
*D99
340
0
  0
BLOCK_RECORD
  5
184F
330
1
100
AcDbSymbolTableRecord
100
AcDbBlockTableRecord
  2
*D100
340
0
  0
BLOCK_RECORD
  5
1857
330
1
100
AcDbSymbolTableRecord
100
AcDbBlockTableRecord
  2
*D101
340
0
  0
BLOCK_RECORD
  5
192B
330
1
100
AcDbSymbolTableRecord
100
AcDbBlockTableRecord
  2
*D102
340
0
  0
BLOCK_RECORD
  5
1937
330
1
100
AcDbSymbolTableRecord
100
AcDbBlockTableRecord
  2
*D103
340
0
  0
BLOCK_RECORD
  5
1955
330
1
100
AcDbSymbolTableRecord
100
AcDbBlockTableRecord
  2
*D104
340
0
  0
BLOCK_RECORD
  5
1963
330
1
100
AcDbSymbolTableRecord
100
AcDbBlockTableRecord
  2
*D105
340
0
  0
BLOCK_RECORD
  5
196B
330
1
100
AcDbSymbolTableRecord
100
AcDbBlockTableRecord
  2
*D106
340
0
  0
BLOCK_RECORD
  5
1973
330
1
100
AcDbSymbolTableRecord
100
AcDbBlockTableRecord
  2
*D107
340
0
  0
BLOCK_RECORD
  5
1981
330
1
100
AcDbSymbolTableRecord
100
AcDbBlockTableRecord
  2
*D108
340
0
  0
ENDTAB
  0
ENDSEC
  0
SECTION
  2
BLOCKS
  0
BLOCK
  5
20
330
1F
100
AcDbEntity
  8
0
100
AcDbBlockBegin
  2
*Model_Space
 70
     0
 10
0.0
 20
0.0
 30
0.0
  3
*Model_Space
  1

  0
ENDBLK
  5
21
330
1F
100
AcDbEntity
  8
0
100
AcDbBlockEnd
  0
BLOCK
  5
1C
330
1B
100
AcDbEntity
 67
     1
  8
0
100
AcDbBlockBegin
  2
*Paper_Space
 70
     0
 10
0.0
 20
0.0
 30
0.0
  3
*Paper_Space
  1

  0
ENDBLK
  5
1D
330
1B
100
AcDbEntity
 67
     1
  8
0
100
AcDbBlockEnd
  0
BLOCK
  5
24
330
23
100
AcDbEntity
 67
     1
  8
0
100
AcDbBlockBegin
  2
*Paper_Space0
 70
     0
 10
0.0
 20
0.0
 30
0.0
  3
*Paper_Space0
  1

  0
ENDBLK
  5
25
330
23
100
AcDbEntity
 67
     1
  8
0
100
AcDbBlockEnd
  0
BLOCK
  5
91B
330
919
100
AcDbEntity
  8
0
100
AcDbBlockBegin
  2
_DotSmall
 70
     0
 10
0.0
 20
0.0
 30
0.0
  3
_DotSmall
  1

  0
LWPOLYLINE
  5
91A
330
919
100
AcDbEntity
  8
0
  6
ByBlock
 62
     0
100
AcDbPolyline
 90
        2
 70
     1
 43
0.5
 10
-0.0625
 20
0.0
 42
1.0
 10
0.0625
 20
0.0
 42
1.0
  0
ENDBLK
  5
91C
330
919
100
AcDbEntity
  8
0
100
AcDbBlockEnd
  0
BLOCK
  5
92A
330
922
100
AcDbEntity
  8
0
100
AcDbBlockBegin
  2
base para cotas
 70
     0
 10
0.0
 20
0.0
 30
0.0
  3
base para cotas
  1

  0
LINE
  5
B36
330
922
100
AcDbEntity
  8
cotas
100
AcDbLine
 10
0.0
 20
-30.0
 30
0.0
 11
327.1260136525398
 21
-30.0
 31
0.0
  0
LINE
  5
B37
330
922
100
AcDbEntity
  8
cotas
100
AcDbLine
 10
0.0
 20
-25.0
 30
0.0
 11
327.1260136525398
 21
-25.0
 31
0.0
  0
LINE
  5
B38
330
922
100
AcDbEntity
  8
cotas
100
AcDbLine
 10
0.0
 20
-20.0
 30
0.0
 11
327.1260136525398
 21
-20.0
 31
0.0
  0
LINE
  5
B39
330
922
100
AcDbEntity
  8
cotas
100
AcDbLine
 10
0.0
 20
-15.0
 30
0.0
 11
327.1260136525398
 21
-15.0
 31
0.0
  0
LINE
  5
B3A
330
922
100
AcDbEntity
  8
cotas
100
AcDbLine
 10
0.0
 20
-10.0
 30
0.0
 11
327.1260136525398
 21
-10.0
 31
0.0
  0
LINE
  5
B3B
330
922
100
AcDbEntity
  8
cotas
100
AcDbLine
 10
0.0
 20
0.0
 30
0.0
 11
0.0
 21
-30.0
 31
0.0
  0
LINE
  5
B3C
330
922
100
AcDbEntity
  8
cotas
100
AcDbLine
 10
327.1260136525398
 20
-30.0
 30
0.0
 11
327.1260136525398
 21
0.0
 31
0.0
  0
ENDBLK
  5
92B
330
922
100
AcDbEntity
  8
0
100
AcDbBlockEnd
  0
BLOCK
  5
AAD
330
AA8
100
AcDbEntity
  8
0
100
AcDbBlockBegin
  2
_CLOSED
 70
     0
 10
0.0
 20
0.0
 30
0.0
  3
_CLOSED
  1

  0
LINE
  5
AA9
330
AA8
100
AcDbEntity
  8
0
100
AcDbLine
 10
-1.0
 20
0.166667
 30
0.0
 11
0.0
 21
0.0
 31
0.0
  0
LINE
  5
AAA
330
AA8
100
AcDbEntity
  8
0
100
AcDbLine
 10
0.0
 20
0.0
 30
0.0
 11
-1.0
 21
-0.166667
 31
0.0
  0
LINE
  5
AAB
330
AA8
100
AcDbEntity
  8
0
100
AcDbLine
 10
-1.0
 20
0.166667
 30
0.0
 11
-1.0
 21
-0.166667
 31
0.0
  0
LINE
  5
AAC
330
AA8
100
AcDbEntity
  8
0
100
AcDbLine
 10
0.0
 20
0.0
 30
0.0
 11
-1.0
 21
0.0
 31
0.0
  0
ENDBLK
  5
AAE
330
AA8
100
AcDbEntity
  8
0
100
AcDbBlockEnd
  0
BLOCK
  5
B7C
330
B79
100
AcDbEntity
  8
0
100
AcDbBlockBegin
  2
nota revisoes
 70
     0
 10
0.0
 20
0.0
 30
0.0
  3
nota revisoes
  1

  0
CIRCLE
  5
B7A
330
B79
100
AcDbEntity
  8
4
100
AcDbCircle
 10
0.0
 20
0.0
 30
0.0
 40
13.69426055101189
  0
TEXT
  5
B7B
330
B79
100
AcDbEntity
  8
4
100
AcDbText
 10
-5.496248358154345
 20
-5.354545554066362
 30
0.0
 40
12.0
  1
1
  7
SANINDUSA
 72
     1
 11
-0.249774214433728
 21
-5.354545554066362
 31
0.0
100
AcDbText
  0
ENDBLK
  5
B7D
330
B79
100
AcDbEntity
  8
0
100
AcDbBlockEnd
  0
BLOCK
  5
B9C
330
B8E
100
AcDbEntity
  8
0
100
AcDbBlockBegin
  2
a3l
 70
     0
 10
0.0
 20
0.0
 30
0.0
  3
a3l
  1

  0
LINE
  5
B8F
330
B8E
100
AcDbEntity
  8
1
100
AcDbLine
 10
-364.2925296599447
 20
-362.1188951399395
 30
0.0
 11
-364.2925296599447
 21
-65.11889513993946
 31
0.0
  0
LINE
  5
B90
330
B8E
100
AcDbEntity
  8
4
100
AcDbLine
 10
-369.2925296599447
 20
-357.1188951399395
 30
0.0
 11
-369.2925296599447
 21
-70.11889513993946
 31
0.0
  0
LINE
  5
B91
330
B8E
100
AcDbEntity
  8
1
100
AcDbLine
 10
-784.2925296599446
 20
-65.11889513993946
 30
0.0
 11
-784.2925296599446
 21
-362.1188951399395
 31
0.0
  0
LINE
  5
B92
330
B8E
100
AcDbEntity
  8
4
100
AcDbLine
 10
-759.2925296599446
 20
-357.1188951399395
 30
0.0
 11
-759.2925296599446
 21
-70.11889513993946
 31
0.0
  0
LINE
  5
B93
330
B8E
100
AcDbEntity
  8
1
100
AcDbLine
 10
-784.2925296599446
 20
-362.1188951399395
 30
0.0
 11
-364.2925296599447
 21
-362.1188951399395
 31
0.0
  0
LINE
  5
B94
330
B8E
100
AcDbEntity
  8
4
100
AcDbLine
 10
-759.2925296599446
 20
-357.1188951399395
 30
0.0
 11
-369.2925296599447
 21
-357.1188951399395
 31
0.0
  0
LINE
  5
B95
330
B8E
100
AcDbEntity
  8
1
100
AcDbLine
 10
-654.2925296599446
 20
-357.1188951399395
 30
0.0
 11
-654.2925296599446
 21
-362.1188951399395
 31
0.0
  0
LINE
  5
B96
330
B8E
100
AcDbEntity
  8
1
100
AcDbLine
 10
-364.2925296599447
 20
-65.11889513993946
 30
0.0
 11
-784.2925296599446
 21
-65.11889513993946
 31
0.0
  0
LINE
  5
B97
330
B8E
100
AcDbEntity
  8
4
100
AcDbLine
 10
-369.2925296599447
 20
-70.11889513993946
 30
0.0
 11
-759.2925296599446
 21
-70.11889513993946
 31
0.0
  0
LINE
  5
B98
330
B8E
100
AcDbEntity
  8
1
100
AcDbLine
 10
-654.2925296599446
 20
-65.11889513993946
 30
0.0
 11
-654.2925296599446
 21
-70.11889513993946
 31
0.0
  0
LINE
  5
B99
330
B8E
100
AcDbEntity
  8
1
100
AcDbLine
 10
-549.2925296599446
 20
-70.11889513993946
 30
0.0
 11
-549.2925296599446
 21
-65.11889513993946
 31
0.0
  0
LINE
  5
B9A
330
B8E
100
AcDbEntity
  8
1
100
AcDbLine
 10
-369.2925296599447
 20
-65.11889513993946
 30
0.0
 11
-364.2925296599447
 21
-65.11889513993946
 31
0.0
  0
LINE
  5
B9B
330
B8E
100
AcDbEntity
  8
1
100
AcDbLine
 10
-549.2925296599446
 20
-357.1188951399395
 30
0.0
 11
-549.2925296599446
 21
-362.1188951399395
 31
0.0
  0
ENDBLK
  5
B9D
330
B8E
100
AcDbEntity
  8
0
100
AcDbBlockEnd
  0
BLOCK
  5
C13
330
B9E
100
AcDbEntity
  8
0
100
AcDbBlockBegin
  2
legenda desenvolvimento
 70
     2
 10
0.0
 20
0.0
 30
0.0
  3
legenda desenvolvimento
  1

  0
ATTDEF
  5
B9F
330
B9E
100
AcDbEntity
  8
1
100
AcDbText
 10
-108.606245802552
 20
55.5
 30
0.0
 40
4.0
  1
XXXXXXXXXXXXXX
 41
0.8
  7
SANINDUSA
 72
     4
 11
-87.5
 21
57.5
 31
0.0
100
AcDbAttributeDefinition
  3
Nome do Produto:
  2
PRODUTO
 70
     0
  0
ATTDEF
  5
BA0
330
B9E
100
AcDbEntity
  8
1
100
AcDbText
 10
-97.9997966101695
 20
41.25
 30
0.0
 40
3.0
  1
XXXXXXXXX
 41
0.8
  7
futura
 72
     4
 11
-87.5
 21
42.75
 31
0.0
100
AcDbAttributeDefinition
  3
Nome da Peça:
  2
PECA
 70
     0
  0
ATTDEF
  5
BA1
330
B9E
100
AcDbEntity
  8
1
100
AcDbText
 10
-133.4422431161853
 20
21.11745296763252
 30
0.0
 40
2.5
  1
X
 41
0.8
  7
SANINDUSA
 72
     4
 11
-132.5
 21
22.36745296763252
 31
0.0
100
AcDbAttributeDefinition
  3
Cod. TESTE:
  2
TESTE
 70
     0
  0
ATTDEF
  5
BA2
330
B9E
100
AcDbEntity
  8
1
100
AcDbText
 10
-124.3844862323707
 20
21.11745296763252
 30
0.0
 40
2.5
  1
XX
 41
0.8
  7
SANINDUSA
 72
     4
 11
-122.5
 21
22.36745296763252
 31
0.0
100
AcDbAttributeDefinition
  3
Cod. Ano:
  2
ANO
 70
     0
  0
ATTDEF
  5
BA3
330
B9E
100
AcDbEntity
  8
1
100
AcDbText
 10
-112.526889953052
 20
21.11745296763252
 30
0.0
 40
2.5
  1
XXX
 41
0.8
  7
SANINDUSA
 72
     4
 11
-109.700160604496
 21
22.36745296763252
 31
0.0
100
AcDbAttributeDefinition
  3
Cod. Sequência:
  2
SEQUENCIA
 70
     0
  0
ATTDEF
  5
BA4
330
B9E
100
AcDbEntity
  8
1
100
AcDbText
 10
-99.35382430979316
 20
21.11745296763252
 30
0.0
 40
2.5
  1
XX
 41
0.8
  7
SANINDUSA
 72
     4
 11
-97.46933807742244
 21
22.36745296763252
 31
0.0
100
AcDbAttributeDefinition
  3
Cod. Tipo:
  2
TIPO
 70
     0
  0
ATTDEF
  5
BA5
330
B9E
100
AcDbEntity
  8
1
100
AcDbText
 10
-87.42035911468438
 20
21.11745296763252
 30
0.0
 40
2.5
  1
XXX
 41
0.8
  7
SANINDUSA
 72
     4
 11
-84.59362976612828
 21
22.36745296763252
 31
0.0
100
AcDbAttributeDefinition
  3
Cod. Produto:
  2
PRODUTO
 70
     0
  0
ATTDEF
  5
BA6
330
B9E
100
AcDbEntity
  8
1
100
AcDbText
 10
-74.62051971917853
 20
21.11745296763252
 30
0.0
 40
2.5
  1
XXX
 41
0.8
  7
SANINDUSA
 72
     4
 11
-71.79379037062244
 21
22.36745296763252
 31
0.0
100
AcDbAttributeDefinition
  3
Cod. Peça:
  2
PECA
 70
     0
  0
ATTDEF
  5
BA7
330
B9E
100
AcDbEntity
  8
1
100
AcDbText
 10
-61.10603446650329
 20
21.11745296763252
 30
0.0
 40
2.5
  1
XX
 41
0.8
  7
SANINDUSA
 72
     4
 11
-59.22154823413257
 21
22.36745296763252
 31
0.0
100
AcDbAttributeDefinition
  3
Cod. Revisão:
  2
REV
 70
     0
  0
ATTDEF
  5
BA8
330
B9E
100
AcDbEntity
  8
1
100
AcDbText
 10
-48.43615325006194
 20
21.11745296763252
 30
0.0
 40
2.5
  1
XX
 41
0.8
  7
SANINDUSA
 72
     4
 11
-46.55166701769121
 21
22.36745296763252
 31
0.0
100
AcDbAttributeDefinition
  3
Cod. Alteração:
  2
ALT
 70
     0
  0
ATTDEF
  5
BA9
330
B9E
100
AcDbEntity
  8
1
100
AcDbText
 10
-35.19086635325722
 20
23.98875083948959
 30
0.0
 40
3.0
  1
1/XXX
 41
0.8
  7
SANINDUSA
 72
     4
 11
-30.0
 21
25.25
 31
0.0
100
AcDbAttributeDefinition
  3
Escala geral:
  2
ESCALA
 70
     0
  0
ATTDEF
  5
BAA
330
B9E
100
AcDbEntity
  8
1
100
AcDbText
 10
-15.65345869711215
 20
23.75
 30
0.0
 40
3.0
  1
XXXXX
 41
0.8
  7
SANINDUSA
 72
     4
 11
-10.0
 21
25.25
 31
0.0
100
AcDbAttributeDefinition
  3
Folha:
  2
FOLHA
 70
     0
  0
ATTDEF
  5
BAB
330
B9E
100
AcDbEntity
  8
1
100
AcDbText
 10
-178.5146998822042
 20
56.9531347542807
 30
0.0
 40
2.0
  1
xx
 41
0.8
  7
SANINDUSA
 72
     4
 11
-177.2123493113513
 21
57.70330265219877
 31
0.0
100
AcDbAttributeDefinition
  3
revisão
  2
REV.
 70
     0
  0
ATTDEF
  5
BAC
330
B9E
100
AcDbEntity
  8
1
100
AcDbText
 10
-172.7849640077129
 20
56.9531347542807
 30
0.0
 40
2.0
  1
xx
 41
0.8
  7
SANINDUSA
 72
     4
 11
-171.48261343686
 21
57.70330265219877
 31
0.0
100
AcDbAttributeDefinition
  3
alteração
  2
ALT.
 70
     0
  0
ATTDEF
  5
BAD
330
B9E
100
AcDbEntity
  8
1
100
AcDbText
 10
-168.007199951307
 20
56.70330265219877
 30
0.0
 40
2.0
  1
xx/xx/xxxx
 41
0.8
  7
SANINDUSA
 11
-168.007199951307
 21
57.70330265219877
 31
0.0
100
AcDbAttributeDefinition
  3
data
  2
DATA
 70
     0
 74
     2
  0
ATTDEF
  5
BAE
330
B9E
100
AcDbEntity
  8
1
100
AcDbText
 10
-168.5396372253371
 20
13.15916722632639
 30
0.0
 40
2.0
  1
XX/XX/XXXX
 41
0.8
  7
SANINDUSA
 72
     4
 11
-161.5099528734231
 21
14.0
 31
0.0
100
AcDbAttributeDefinition
  3
Data projecto
  2
DATA_PROJ
 70
     0
  0
ATTDEF
  5
BAF
330
B9E
100
AcDbEntity
  8
1
100
AcDbText
 10
-150.8658110728766
 20
13.24983210208193
 30
0.0
 40
2.0
  1
xxxxxxxx
 41
0.8
  7
SANINDUSA
 72
     4
 11
-145.6564087894649
 21
14.0
 31
0.0
100
AcDbAttributeDefinition
  3
nome de quem projectou
  2
NOME
 70
     0
  0
ATTDEF
  5
BB0
330
B9E
100
AcDbEntity
  8
1
100
AcDbText
 10
-168.5396372253371
 20
9.159167226326394
 30
0.0
 40
2.0
  1
XX/XX/XXXX
 41
0.8
  7
SANINDUSA
 72
     4
 11
-161.5099528734231
 21
10.0
 31
0.0
100
AcDbAttributeDefinition
  3
Data desenhou
  2
DATA_DES
 70
     0
  0
ATTDEF
  5
BB1
330
B9E
100
AcDbEntity
  8
1
100
AcDbText
 10
-151.516986358303
 20
9.249832102081933
 30
0.0
 40
2.0
  1
xxxxxxxxx
 41
0.8
  7
SANINDUSA
 72
     4
 11
-145.6564087894649
 21
10.0
 31
0.0
100
AcDbAttributeDefinition
  3
nome
  2
NOME
 70
     0
  0
ATTDEF
  5
BB2
330
B9E
100
AcDbEntity
  8
1
100
AcDbText
 10
-127.2924214135946
 20
14.1979876583216
 30
0.0
 40
2.0
  1
Vitreous China
 41
0.8
  7
SANINDUSA
 72
     4
 11
-119.231709526422
 21
15.22216495852308
 31
0.0
100
AcDbAttributeDefinition
  3
Nome do Material:
  2
MATERIAL
 70
     0
  0
ATTDEF
  5
BB3
330
B9E
100
AcDbEntity
  8
1
100
AcDbText
 10
-103.1563452122093
 20
14.38019043949261
 30
0.0
 40
2.0
  1
Branco
 41
0.8
  7
SANINDUSA
 72
     4
 11
-99.33418268702462
 21
15.35937109765245
 31
0.0
100
AcDbAttributeDefinition
  3
cor da peça
  2
COR
 70
     0
  0
ATTDEF
  5
BB4
330
B9E
100
AcDbEntity
  8
1
100
AcDbText
 10
-116.7235057085292
 20
5.975822699798522
 30
0.0
 40
2.0
  1
Vidrado
 41
0.8
  7
SANINDUSA
 72
     4
 11
-112.5
 21
7.0
 31
0.0
100
AcDbAttributeDefinition
  3
Tipo de acabamento:
  2
ACABAMENTO
 70
     0
  0
ATTDEF
  5
BB5
330
B9E
100
AcDbEntity
  8
1
100
AcDbText
 10
-79.18527869967246
 20
16.65066409850533
 30
0.0
 40
2.0
  1
XXXXXXX
 41
0.8
  7
SANINDUSA
 72
     4
 11
-73.90871724903445
 21
17.65066409850533
 31
0.0
100
AcDbAttributeDefinition
  3
Normas
  2
NORMAS
 70
     0
  0
ATTDEF
  5
BB6
330
B9E
100
AcDbEntity
  8
1
100
AcDbText
 10
-30.55312290127603
 20
14.0
 30
0.0
 40
2.0
  1
XXXXXXXXXXXXXX
 41
0.8
  7
SANINDUSA
 72
     4
 11
-20.0
 21
15.0
 31
0.0
100
AcDbAttributeDefinition
  3
Substitui o desenho:
  2
SUBSTITUI
 70
     0
  0
ATTDEF
  5
BB7
330
B9E
100
AcDbEntity
  8
1
100
AcDbText
 10
-31.30691739422431
 20
6.0
 30
0.0
 40
2.0
  1
XXXXXXXXXXXXXXX
 41
0.8
  7
SANINDUSA
 72
     4
 11
-20.0
 21
7.0
 31
0.0
100
AcDbAttributeDefinition
  3
Substituido por:
  2
SUBSTITUIDO
 70
     0
  0
ATTDEF
  5
BB8
330
B9E
100
AcDbEntity
  8
1
100
AcDbText
 10
-110.0220608548302
 20
1.478208457928303
 30
0.0
 40
2.0
  1
XXXXXXXXXXXXXXXXXXXXXXXXXXXXXXXXXX
 41
0.8
  7
SANINDUSA
 11
-110.0220608548302
 21
2.478208457928303
 31
0.0
100
AcDbAttributeDefinition
  3
Localização do desenho:
  2
LOC-DWG
 70
     0
 74
     2
  0
LINE
  5
BB9
330
B9E
100
AcDbEntity
  8
3
100
AcDbLine
 10
-135.0
 20
4.0
 30
0.0
 11
0.0000000000004547
 21
4.0
 31
0.0
  0
LINE
  5
BBA
330
B9E
100
AcDbEntity
  8
3
100
AcDbLine
 10
-90.00000000000046
 20
12.0
 30
0.0
 11
-135.0
 21
12.0
 31
0.0
  0
LINE
  5
BBB
330
B9E
100
AcDbEntity
  8
3
100
AcDbLine
 10
-135.0
 20
32.5
 30
0.0
 11
-40.0
 21
32.5
 31
0.0
  0
TEXT
  5
BBC
330
B9E
100
AcDbEntity
  8
1
100
AcDbText
 10
-134.0
 20
1.25
 30
0.0
 40
2.0
  1
Localização do des.:
 41
0.8
  7
SANINDUSA
 11
-134.0
 21
2.25
 31
0.0
100
AcDbText
 73
     2
  0
LINE
  5
BBD
330
B9E
100
AcDbEntity
  8
3
100
AcDbLine
 10
-180.0
 20
65.0
 30
0.0
 11
0.0
 21
65.0
 31
0.0
  0
LINE
  5
BBE
330
B9E
100
AcDbEntity
  8
leg fin
100
AcDbLine
 10
-40.0
 20
25.05956924886846
 30
0.0
 11
-135.0
 21
25.05956924886846
 31
0.0
  0
LINE
  5
BBF
330
B9E
100
AcDbEntity
  8
leg fin
100
AcDbLine
 10
-40.0
 20
28.5
 30
0.0
 11
-135.0
 21
28.5
 31
0.0
  0
LINE
  5
BC0
330
B9E
100
AcDbEntity
  8
3
100
AcDbLine
 10
-135.0
 20
50.0
 30
0.0
 11
-40.0
 21
50.0
 31
0.0
  0
TEXT
  5
BC1
330
B9E
100
AcDbEntity
  8
1
100
AcDbText
 10
-134.0
 20
29.75
 30
0.0
 40
2.0
  1
Desenho nº:
 41
0.8
  7
SANINDUSA
 11
-134.0
 21
30.75
 31
0.0
100
AcDbText
 73
     2
  0
TEXT
  5
BC2
330
B9E
100
AcDbEntity
  8
1
100
AcDbText
 10
-134.0
 20
9.25
 30
0.0
 40
2.0
  1
Acabamento:
 41
0.8
  7
SANINDUSA
 11
-134.0
 21
10.25
 31
0.0
100
AcDbText
 73
     2
  0
LINE
  5
BC3
330
B9E
100
AcDbEntity
  8
3
100
AcDbLine
 10
-180.0
 20
20.0
 30
0.0
 11
0.0
 21
20.0
 31
0.0
  0
LINE
  5
BC4
330
B9E
100
AcDbEntity
  8
1
100
AcDbLine
 10
-174.5810776056337
 20
55.5
 30
0.0
 11
-174.5810776056337
 21
65.0
 31
0.0
  0
LINE
  5
BC5
330
B9E
100
AcDbEntity
  8
1
100
AcDbLine
 10
-168.9210461879161
 20
55.5
 30
0.0
 11
-168.9210461879161
 21
65.0
 31
0.0
  0
LINE
  5
BC6
330
B9E
100
AcDbEntity
  8
1
100
AcDbLine
 10
-154.0988595589306
 20
55.5
 30
0.0
 11
-154.0988595589306
 21
65.0
 31
0.0
  0
LINE
  5
BC7
330
B9E
100
AcDbEntity
  8
3
100
AcDbLine
 10
-180.0
 20
65.0
 30
0.0
 11
-180.0
 21
0.0
 31
0.0
  0
LINE
  5
BC8
330
B9E
100
AcDbEntity
  8
3
100
AcDbLine
 10
-135.0
 20
0.0
 30
0.0
 11
-135.0
 21
65.0
 31
0.0
  0
TEXT
  5
BC9
330
B9E
100
AcDbEntity
  8
1
100
AcDbText
 10
-179.0
 20
9.75
 30
0.0
 40
1.5
  1
Des.
 41
0.8
  7
SANINDUSA
 11
-179.0
 21
10.5
 31
0.0
100
AcDbText
 73
     2
  0
LINE
  5
BCA
330
B9E
100
AcDbEntity
  8
1
100
AcDbLine
 10
-168.9210461879161
 20
20.0
 30
0.0
 11
-168.9210461879161
 21
0.0
 31
0.0
  0
LINE
  5
BCB
330
B9E
100
AcDbEntity
  8
1
100
AcDbLine
 10
-154.0988595589306
 20
20.0
 30
0.0
 11
-154.0988595589306
 21
0.0
 31
0.0
  0
LINE
  5
BCC
330
B9E
100
AcDbEntity
  8
1
100
AcDbLine
 10
-180.0
 20
4.0
 30
0.0
 11
-135.0
 21
4.0
 31
0.0
  0
LINE
  5
BCD
330
B9E
100
AcDbEntity
  8
1
100
AcDbLine
 10
-180.0
 20
8.0
 30
0.0
 11
-135.0
 21
8.0
 31
0.0
  0
TEXT
  5
BCE
330
B9E
100
AcDbEntity
  8
1
100
AcDbText
 10
-179.0
 20
1.73257823687436
 30
0.0
 40
1.5
  1
Aprov.
 41
0.8
  7
SANINDUSA
 11
-179.0
 21
2.48257823687436
 31
0.0
100
AcDbText
 73
     2
  0
TEXT
  5
BCF
330
B9E
100
AcDbEntity
  8
1
100
AcDbText
 10
-179.0
 20
5.75
 30
0.0
 40
1.5
  1
Ver.
 41
0.8
  7
SANINDUSA
 11
-179.0
 21
6.5
 31
0.0
100
AcDbText
 73
     2
  0
LINE
  5
BD0
330
B9E
100
AcDbEntity
  8
1
100
AcDbLine
 10
-180.0
 20
16.0
 30
0.0
 11
-135.0
 21
16.0
 31
0.0
  0
LINE
  5
BD1
330
B9E
100
AcDbEntity
  8
1
100
AcDbLine
 10
-180.0
 20
12.0
 30
0.0
 11
-135.0
 21
12.0
 31
0.0
  0
TEXT
  5
BD2
330
B9E
100
AcDbEntity
  8
1
100
AcDbText
 10
-179.0
 20
13.75
 30
0.0
 40
1.5
  1
Proj.
 41
0.8
  7
SANINDUSA
 11
-179.0
 21
14.5
 31
0.0
100
AcDbText
 73
     2
  0
TEXT
  5
BD3
330
B9E
100
AcDbEntity
  8
1
100
AcDbText
 10
-167.9210461879161
 20
17.75
 30
0.0
 40
1.5
  1
Data
 41
0.8
  7
SANINDUSA
 11
-167.9210461879161
 21
18.5
 31
0.0
100
AcDbText
 73
     2
  0
TEXT
  5
BD4
330
B9E
100
AcDbEntity
  8
1
100
AcDbText
 10
-153.0988595589306
 20
17.75
 30
0.0
 40
1.5
  1
Nome
 41
0.8
  7
SANINDUSA
 11
-153.0988595589306
 21
18.5
 31
0.0
100
AcDbText
 73
     2
  0
LINE
  5
BD5
330
B9E
100
AcDbEntity
  8
leg fin
100
AcDbLine
 10
-130.0
 20
20.0
 30
0.0
 11
-130.0
 21
28.5
 31
0.0
  0
TEXT
  5
BD6
330
B9E
100
AcDbEntity
  8
1
100
AcDbText
 10
-134.0
 20
17.25
 30
0.0
 40
2.0
  1
Material:
 41
0.8
  7
SANINDUSA
 11
-134.0
 21
18.25
 31
0.0
100
AcDbText
 73
     2
  0
TEXT
  5
BD7
330
B9E
100
AcDbEntity
  8
1
100
AcDbText
 10
-129.0
 20
26.43288406845113
 30
0.0
 40
1.5
  1
Ano:
 41
0.8
  7
SANINDUSA
 11
-129.0
 21
27.18288406845113
 31
0.0
100
AcDbText
 73
     2
  0
LINE
  5
BD8
330
B9E
100
AcDbEntity
  8
1
100
AcDbLine
 10
-180.0
 20
55.5
 30
0.0
 11
-135.0
 21
55.5
 31
0.0
  0
TEXT
  5
BD9
330
B9E
100
AcDbEntity
  8
1
100
AcDbText
 10
-179.0
 20
52.67772246885193
 30
0.0
 40
1.5
  1
descrição
 41
0.8
  7
SANINDUSA
 11
-179.0
 21
53.42772246885193
 31
0.0
100
AcDbText
 73
     2
  0
TEXT
  5
BDA
330
B9E
100
AcDbEntity
  8
1
100
AcDbText
 10
-134.0
 20
47.25
 30
0.0
 40
2.0
  1
Peça:
 41
0.8
  7
SANINDUSA
 11
-134.0
 21
48.25
 31
0.0
100
AcDbText
 73
     2
  0
LINE
  5
BDB
330
B9E
100
AcDbEntity
  8
1
100
AcDbLine
 10
-180.0
 20
59.5
 30
0.0
 11
-135.0
 21
59.5
 31
0.0
  0
TEXT
  5
BDC
330
B9E
100
AcDbEntity
  8
1
100
AcDbText
 10
-173.5810776056337
 20
62.75
 30
0.0
 40
1.5
  1
Alt.
 41
0.8
  7
SANINDUSA
 11
-173.5810776056337
 21
63.5
 31
0.0
100
AcDbText
 73
     2
  0
TEXT
  5
BDD
330
B9E
100
AcDbEntity
  8
1
100
AcDbText
 10
-179.0
 20
62.75
 30
0.0
 40
1.5
  1
Rev.
 41
0.8
  7
SANINDUSA
 11
-179.0
 21
63.5
 31
0.0
100
AcDbText
 73
     2
  0
TEXT
  5
BDE
330
B9E
100
AcDbEntity
  8
1
100
AcDbText
 10
-167.9210461879161
 20
62.75
 30
0.0
 40
1.5
  1
Data
 41
0.8
  7
SANINDUSA
 11
-167.9210461879161
 21
63.5
 31
0.0
100
AcDbText
 73
     2
  0
TEXT
  5
BDF
330
B9E
100
AcDbEntity
  8
1
100
AcDbText
 10
-153.0988595589306
 20
62.75
 30
0.0
 40
1.5
  1
Nome
 41
0.8
  7
SANINDUSA
 11
-153.0988595589306
 21
63.5
 31
0.0
100
AcDbText
 73
     2
  0
TEXT
  5
BE0
330
B9E
100
AcDbEntity
  8
1
100
AcDbText
 10
-134.0
 20
62.25
 30
0.0
 40
2.0
  1
Produto:
 41
0.8
  7
SANINDUSA
 11
-134.0
 21
63.25
 31
0.0
100
AcDbText
 73
     2
  0
LINE
  5
BE1
330
B9E
100
AcDbEntity
  8
3
100
AcDbLine
 10
-40.0
 20
4.0
 30
0.0
 11
-40.0
 21
65.0
 31
0.0
  0
LWPOLYLINE
  5
BE2
102
{ACAD_REACTORS
330
BEC
102
}
330
B9E
100
AcDbEntity
  8
9
100
AcDbPolyline
 90
       12
 70
     1
 43
0.0
 10
-3.038714600644652
 20
58.90010174665076
 10
-5.726962862472191
 20
58.90010174665076
 10
-5.726962862472191
 20
58.5001017466509
 10
-3.038748516195028
 20
58.5001017466509
 42
-0.4142135623731731
 10
-2.638748516194482
 20
58.1001017466508
 10
-2.638748516194482
 20
57.42799728675596
 10
-5.21497371544865
 20
57.42799728675596
 42
0.4142135623731289
 10
-6.014973715448377
 20
56.627997286756
 10
-6.014973715448377
 20
55.92380871629643
 42
0.4142135623731132
 10
-5.21497371544865
 20
55.12380871629648
 10
-2.23871460064447
 20
55.12380871629648
 10
-2.23871460064447
 20
58.10010174665103
 42
0.4142135623730717
  0
LWPOLYLINE
  5
BE3
102
{ACAD_REACTORS
330
BEC
102
}
330
B9E
100
AcDbEntity
  8
9
100
AcDbPolyline
 90
       20
 70
     1
 43
0.0
 10
-10.01531287095122
 20
57.82799728675581
 10
-10.01531287095122
 20
58.10010174665103
 42
-0.4142135623730744
 10
-9.615312870951584
 20
58.5001017466509
 10
-6.92703069357276
 20
58.5001017466509
 10
-6.92703069357276
 20
58.90010174665076
 10
-9.615346786501959
 20
58.90010174665076
 42
0.4142135623730883
 10
-10.41534678650168
 20
58.1001017466508
 10
-10.41534678650168
 20
57.82796337120567
 42
0.4142135623730717
 10
-9.615346786501959
 20
57.02796337120571
 10
-7.423079531965413
 20
57.02796337120571
 42
-0.4142135623730847
 10
-7.023079531965322
 20
56.62796337120562
 10
-7.023079531965322
 20
55.90786840766487
 42
-0.4142135623730744
 10
-7.423079531965413
 20
55.507868407665
 10
-10.41534678650168
 20
55.507868407665
 10
-10.41534678650168
 20
55.12380871629648
 10
-7.445787917283723
 20
55.12380871629648
 42
0.4114777732064574
 10
-6.645822882998345
 20
55.9163291493976
 10
-6.639238813324936
 20
56.62051771985716
 42
0.4169546541682913
 10
-7.439203847610315
 20
57.42799728675596
 10
-9.615312870951584
 20
57.42799728675596
 42
-0.4142135623731576
  0
LWPOLYLINE
  5
BE4
102
{ACAD_REACTORS
330
BEC
102
}
330
B9E
100
AcDbEntity
  8
9
100
AcDbPolyline
 90
       12
 70
     1
 43
0.0
 10
-14.41561811090378
 20
58.90010174665076
 10
-14.79964388672215
 20
58.90010174665076
 10
-14.79964388672215
 20
55.92380871629643
 42
0.4142135623731133
 10
-13.99964388672242
 20
55.12380871629648
 10
-11.8233508563676
 20
55.12380871629648
 42
0.4142135623730872
 10
-11.02335085636741
 20
55.92380871629643
 10
-11.02335085636741
 20
58.90010174665076
 10
-11.42338477191788
 20
58.90010174665076
 10
-11.42338477191788
 20
55.91567577726095
 42
-0.4131711701795318
 10
-11.82196067063523
 20
55.51567831234956
 10
-14.0141940096214
 20
55.50787335710947
 42
-0.4152567234624407
 10
-14.41561811090378
 20
55.90787082202087
  0
LWPOLYLINE
  5
BE5
102
{ACAD_REACTORS
330
BEC
102
}
330
B9E
100
AcDbEntity
  8
9
100
AcDbPolyline
 90
        6
 70
     1
 43
0.0
 10
-15.80771578768872
 20
55.507868407665
 10
-18.39994912667453
 20
55.507868407665
 42
-0.4142135623731731
 10
-18.79994912667462
 20
55.90786840766487
 10
-18.79994912667462
 20
58.10010174665103
 42
-0.4142135623730744
 10
-18.39994912667453
 20
58.5001017466509
 10
-15.80771578768872
 20
58.5001017466509
  0
LWPOLYLINE
  5
BE6
102
{ACAD_REACTORS
330
BEC
102
}
330
B9E
100
AcDbEntity
  8
9
100
AcDbPolyline
 90
        8
 70
     1
 43
0.0
 10
-15.4236900118708
 20
59.87619128370352
 10
-15.80771578768872
 20
59.87619128370352
 10
-15.80771578768872
 20
58.90010174665076
 10
-18.39176256411201
 20
58.90010174665076
 42
0.4131164467977967
 10
-19.19175694739761
 20
58.1030995310698
 10
-19.1999120763262
 20
55.92680650071542
 42
0.4153115297271718
 10
-18.39991769304061
 20
55.12380871629648
 10
-15.4236900118708
 20
55.12380871629648
  0
LWPOLYLINE
  5
BE7
102
{ACAD_REACTORS
330
BEC
102
}
330
B9E
100
AcDbEntity
  8
9
100
AcDbPolyline
 90
       10
 70
     1
 43
0.0
 10
-20.59201288790928
 20
58.90010174665076
 10
-23.56830591826338
 20
58.90010174665076
 10
-23.56830591826338
 20
55.12380871629648
 10
-23.18424622689509
 20
55.12380871629648
 10
-23.18424622689509
 20
58.5001017466509
 10
-20.59204680345965
 20
58.5001017466509
 42
-0.4142135623730898
 10
-20.19204680345956
 20
58.1001017466508
 10
-20.19204680345956
 20
55.12380871629648
 10
-19.79201288790909
 20
55.12380871629648
 10
-19.79201288790909
 20
58.10010174665103
 42
0.4142135623731132
  0
LWPOLYLINE
  5
BE8
102
{ACAD_REACTORS
330
BEC
102
}
330
B9E
100
AcDbEntity
  8
9
100
AcDbPolyline
 90
        4
 70
     1
 43
0.0
 10
-24.19231812786165
 20
58.90010174665076
 10
-24.57637781922995
 20
58.90010174665076
 10
-24.57637781922995
 20
55.12380871629648
 10
-24.19231812786165
 20
55.12380871629648
  0
LWPOLYLINE
  5
BE9
102
{ACAD_REACTORS
330
BEC
102
}
330
B9E
100
AcDbEntity
  8
9
100
AcDbPolyline
 90
       10
 70
     1
 43
0.0
 10
-28.57661522808212
 20
58.5001017466509
 10
-25.98444972019706
 20
58.5001017466509
 42
-0.4142135623731731
 10
-25.58444972019652
 20
58.1001017466508
 10
-25.58444972019652
 20
55.12380871629648
 10
-25.2004239443786
 20
55.12380871629648
 10
-25.2004239443786
 20
58.10010174665103
 42
0.4142135623730717
 10
-26.00042394437833
 20
58.90010174665076
 10
-28.97664914363259
 20
58.90010174665076
 10
-28.97664914363259
 20
55.12380871629648
 10
-28.57661522808212
 20
55.12380871629648
  0
LWPOLYLINE
  5
BEA
102
{ACAD_REACTORS
330
BEC
102
}
330
B9E
100
AcDbEntity
  8
9
100
AcDbPolyline
 90
       12
 70
     1
 43
0.0
 10
-29.58465321349832
 20
58.10010174665103
 42
0.4142135623730716
 10
-30.3846532134985
 20
58.90010174665076
 10
-33.07296930642724
 20
58.90010174665076
 10
-33.07296930642724
 20
58.5001017466509
 10
-30.38468712904842
 20
58.5001017466509
 42
-0.4142135623730067
 10
-29.98468712904878
 20
58.1001017466508
 10
-29.98468712904878
 20
57.42799728675618
 10
-32.56098015940324
 20
57.42799728675596
 42
0.4142135623731289
 10
-33.36098015940343
 20
56.627997286756
 10
-33.36098015940343
 20
55.92380871629643
 42
0.4142135623731132
 10
-32.56098015940324
 20
55.12380871629648
 10
-29.58465321349832
 20
55.12380871629648
  0
LWPOLYLINE
  5
BEB
102
{ACAD_REACTORS
330
BEC
102
}
330
B9E
100
AcDbEntity
  8
9
100
AcDbPolyline
 90
       20
 70
     1
 43
0.0
 10
-34.7850262845518
 20
57.42799728675596
 10
-36.96125148380543
 20
57.42799728675596
 42
-0.4142135623730898
 10
-37.36125148380552
 20
57.82799728675604
 10
-37.36125148380552
 20
58.10010174665103
 42
-0.4142135623730744
 10
-36.96125148380543
 20
58.5001017466509
 10
-34.27303713752781
 20
58.50010174665067
 10
-34.27303713752781
 20
58.90010174665076
 10
-36.96128539935535
 20
58.90010174665076
 42
0.4142135623731289
 10
-37.76128539935553
 20
58.1001017466508
 10
-37.76128539935553
 20
57.82796337120567
 42
0.4142135623730716
 10
-36.9612853993558
 20
57.02796337120571
 10
-34.76901814481926
 20
57.02796337120571
 42
-0.414213562373168
 10
-34.36901814481962
 20
56.62796337120562
 10
-34.36901814481962
 20
55.90786840766487
 42
-0.4142135623730744
 10
-34.76901814481926
 20
55.507868407665
 10
-37.76128539935553
 20
55.507868407665
 10
-37.76128539935553
 20
55.12380871629648
 10
-34.7850262845518
 20
55.12380871629648
 42
0.4142135623731289
 10
-33.98502628455162
 20
55.92380871629643
 10
-33.98502628455162
 20
56.627997286756
 42
0.4142135623731132
  0
HATCH
  5
BEC
330
B9E
100
AcDbEntity
  8
9
100
AcDbHatch
 10
0.0
 20
0.0
 30
0.0
210
0.0
220
0.0
230
1.0
  2
SOLID
 70
     1
 71
     1
 91
       13
 92
        7
 72
     1
 73
     1
 93
       20
 10
-34.36901814481962
 20
55.90786840766487
 42
-0.414213562372991
 10
-34.76901814481926
 20
55.507868407665
 42
0.0
 10
-37.76128539935553
 20
55.507868407665
 42
0.0
 10
-37.76128539935553
 20
55.12380871629648
 42
0.0
 10
-34.7850262845518
 20
55.12380871629648
 42
0.4142135623731705
 10
-33.98502628455162
 20
55.92380871629666
 42
0.0
 10
-33.98502628455162
 20
56.627997286756
 42
0.4142135623731547
 10
-34.7850262845518
 20
57.42799728675596
 42
0.0
 10
-36.96125148380543
 20
57.42799728675596
 42
-0.4142135623730898
 10
-37.36125148380552
 20
57.82799728675604
 42
0.0
 10
-37.36125148380552
 20
58.1001017466508
 42
-0.4142135623731575
 10
-36.96125148380543
 20
58.5001017466509
 42
0.0
 10
-34.27303713752781
 20
58.50010174665067
 42
0.0
 10
-34.27303713752781
 20
58.90010174665076
 42
0.0
 10
-36.96128539935535
 20
58.90010174665076
 42
0.4142135623731705
 10
-37.76128539935553
 20
58.10010174665058
 42
0.0
 10
-37.76128539935553
 20
57.82796337120544
 42
0.4142135623730299
 10
-36.9612853993558
 20
57.02796337120571
 42
0.0
 10
-34.76901814481926
 20
57.02796337120571
 42
-0.4142135623730015
 10
-34.36901814481962
 20
56.62796337120608
 42
0.0
 97
        1
330
BEB
 92
        7
 72
     1
 73
     1
 93
       12
 10
-33.36098015940343
 20
55.92380871629666
 42
0.4142135623731547
 10
-32.56098015940324
 20
55.12380871629648
 42
0.0
 10
-29.58465321349877
 20
55.12380871629648
 42
0.0
 10
-29.58465321349832
 20
58.10010174665058
 42
0.4142135623731964
 10
-30.3846532134985
 20
58.90010174665076
 42
0.0
 10
-33.07296930642724
 20
58.90010174665076
 42
0.0
 10
-33.07296930642724
 20
58.50010174665067
 42
0.0
 10
-30.38468712904887
 20
58.5001017466509
 42
-0.4142135623732564
 10
-29.98468712904878
 20
58.10010174665103
 42
0.0
 10
-29.98468712904923
 20
57.42799728675596
 42
0.0
 10
-32.56098015940324
 20
57.42799728675596
 42
0.4142135623731705
 10
-33.36098015940343
 20
56.627997286756
 42
0.0
 97
        1
330
BEA
 92
       22
 72
     1
 73
     1
 93
        6
 10
-32.97692046803468
 20
56.62796337120562
 42
-0.4142135623731576
 10
-32.57692046803459
 20
57.02796337120571
 42
0.0
 10
-29.98468712904878
 20
57.02796337120571
 42
0.0
 10
-29.98468712904878
 20
55.507868407665
 42
0.0
 10
-32.57692046803459
 20
55.507868407665
 42
-0.4142135623731731
 10
-32.97692046803468
 20
55.90786840766487
 42
0.0
 97
        1
330
C11
 92
        7
 72
     1
 73
     1
 93
       10
 10
-28.57661522808212
 20
58.5001017466509
 42
0.0
 10
-25.98444972019661
 20
58.5001017466509
 42
-0.4142135623730067
 10
-25.58444972019652
 20
58.10010174665058
 42
0.0
 10
-25.58444972019606
 20
55.12380871629648
 42
0.0
 10
-25.20042394437906
 20
55.12380871629648
 42
0.0
 10
-25.2004239443786
 20
58.1001017466508
 42
0.4142135623731134
 10
-26.00042394437833
 20
58.90010174665076
 42
0.0
 10
-28.97664914363259
 20
58.90010174665076
 42
0.0
 10
-28.97664914363259
 20
55.12380871629648
 42
0.0
 10
-28.57661522808212
 20
55.12380871629648
 42
0.0
 97
        1
330
BE9
 92
        7
 72
     0
 73
     1
 93
        4
 10
-24.57637781922995
 20
55.12380871629648
 10
-24.19231812786165
 20
55.12380871629648
 10
-24.19231812786165
 20
58.90010174665076
 10
-24.57637781922995
 20
58.90010174665076
 97
        1
330
BE8
 92
        7
 72
     0
 73
     1
 93
        4
 10
-24.19231812786165
 20
59.87619128370352
 10
-24.5763778192304
 20
59.87619128370352
 10
-24.5763778192304
 20
59.28412752246913
 10
-24.1923181278612
 20
59.28412752246913
 97
        1
330
C12
 92
        7
 72
     1
 73
     1
 93
       10
 10
-23.18424622689509
 20
58.5001017466509
 42
0.0
 10
-20.59204680345965
 20
58.5001017466509
 42
-0.4142135623730898
 10
-20.19204680345956
 20
58.1001017466508
 42
0.0
 10
-20.19204680345956
 20
55.12380871629648
 42
0.0
 10
-19.79201288790909
 20
55.12380871629648
 42
0.0
 10
-19.79201288790909
 20
58.1001017466508
 42
0.4142135623731547
 10
-20.59201288790928
 20
58.90010174665076
 42
0.0
 10
-23.56830591826338
 20
58.90010174665076
 42
0.0
 10
-23.56830591826338
 20
55.12380871629648
 42
0.0
 10
-23.18424622689463
 20
55.12380871629648
 42
0.0
 97
        1
330
BE7
 92
        7
 72
     1
 73
     1
 93
        8
 10
-19.1999120763262
 20
55.92680650071542
 42
0.4153115297271299
 10
-18.39991769304061
 20
55.12380871629648
 42
0.0
 10
-15.4236900118708
 20
55.12380871629648
 42
0.0
 10
-15.4236900118708
 20
59.87619128370352
 42
0.0
 10
-15.80771578768872
 20
59.87619128370352
 42
0.0
 10
-15.80771578768872
 20
58.90010174665076
 42
0.0
 10
-18.39176256411201
 20
58.90010174665076
 42
0.4131164467977965
 10
-19.19175694739761
 20
58.1030995310698
 42
0.0
 97
        1
330
BE6
 92
       22
 72
     1
 73
     1
 93
        6
 10
-18.79994912667462
 20
58.1001017466508
 42
-0.4142135623731575
 10
-18.39994912667453
 20
58.5001017466509
 42
0.0
 10
-15.80771578768872
 20
58.50010174665067
 42
0.0
 10
-15.80771578768827
 20
55.507868407665
 42
0.0
 10
-18.39994912667453
 20
55.507868407665
 42
-0.4142135623731731
 10
-18.79994912667462
 20
55.90786840766487
 42
0.0
 97
        1
330
BE5
 92
        7
 72
     1
 73
     1
 93
       12
 10
-14.79964388672215
 20
55.92380871629621
 42
0.4142135623729885
 10
-13.99964388672242
 20
55.12380871629648
 42
0.0
 10
-11.8233508563676
 20
55.12380871629648
 42
0.4142135623731289
 10
-11.02335085636741
 20
55.92380871629666
 42
0.0
 10
-11.02335085636741
 20
58.90010174665076
 42
0.0
 10
-11.42338477191788
 20
58.90010174665076
 42
0.0
 10
-11.42338477191788
 20
55.91567577726095
 42
-0.4131711701795319
 10
-11.82196067063523
 20
55.51567831234956
 42
0.0
 10
-14.01419400962095
 20
55.50787335710947
 42
-0.4152567234626918
 10
-14.41561811090378
 20
55.90787082202087
 42
0.0
 10
-14.41561811090378
 20
58.90010174665076
 42
0.0
 10
-14.7996438867226
 20
58.90010174665076
 42
0.0
 97
        1
330
BE4
 92
        7
 72
     1
 73
     1
 93
       20
 10
-7.423079531965413
 20
57.02796337120571
 42
-0.414213562373168
 10
-7.023079531965322
 20
56.62796337120562
 42
0.0
 10
-7.023079531965322
 20
55.90786840766487
 42
-0.4142135623731575
 10
-7.423079531965413
 20
55.507868407665
 42
0.0
 10
-10.41534678650168
 20
55.507868407665
 42
0.0
 10
-10.41534678650168
 20
55.12380871629648
 42
0.0
 10
-7.445787917283723
 20
55.12380871629648
 42
0.4114777732065809
 10
-6.645822882998345
 20
55.91632914939783
 42
0.0
 10
-6.639238813324936
 20
56.62051771985716
 42
0.4169546541682913
 10
-7.439203847610315
 20
57.42799728675596
 42
0.0
 10
-9.615312870951584
 20
57.42799728675596
 42
-0.4142135623729911
 10
-10.01531287095122
 20
57.82799728675581
 42
0.0
 10
-10.01531287095122
 20
58.10010174665103
 42
-0.414213562372991
 10
-9.615312870951584
 20
58.5001017466509
 42
0.0
 10
-6.92703069357276
 20
58.50010174665067
 42
0.0
 10
-6.927030693572305
 20
58.90010174665076
 42
0.0
 10
-9.615346786501959
 20
58.90010174665076
 42
0.4142135623730467
 10
-10.41534678650168
 20
58.10010174665103
 42
0.0
 10
-10.41534678650168
 20
57.82796337120544
 42
0.4142135623730301
 10
-9.615346786501959
 20
57.02796337120571
 42
0.0
 97
        1
330
BE3
 92
        7
 72
     1
 73
     1
 93
       12
 10
-5.21497371544865
 20
57.42799728675596
 42
0.4142135623730871
 10
-6.014973715448377
 20
56.627997286756
 42
0.0
 10
-6.014973715448377
 20
55.92380871629621
 42
0.4142135623730715
 10
-5.21497371544865
 20
55.12380871629648
 42
0.0
 10
-2.23871460064447
 20
55.12380871629648
 42
0.0
 10
-2.23871460064447
 20
58.10010174665058
 42
0.414213562373155
 10
-3.038714600644652
 20
58.90010174665076
 42
0.0
 10
-5.726962862471737
 20
58.90010174665076
 42
0.0
 10
-5.726962862472191
 20
58.5001017466509
 42
0.0
 10
-3.038748516194573
 20
58.5001017466509
 42
-0.4142135623730067
 10
-2.638748516194482
 20
58.10010174665058
 42
0.0
 10
-2.638748516194482
 20
57.42799728675596
 42
0.0
 97
        1
330
BE2
 92
       22
 72
     1
 73
     1
 93
        6
 10
-2.638748516194937
 20
57.02796337120571
 42
0.0
 10
-2.638748516194482
 20
55.50786840766477
 42
0.0
 10
-5.21497371544865
 20
55.507868407665
 42
-0.4142135623731731
 10
-5.614973715448741
 20
55.90786840766509
 42
0.0
 10
-5.614973715448741
 20
56.62796337120562
 42
-0.4142135623731576
 10
-5.21497371544865
 20
57.02796337120571
 42
0.0
 97
        1
330
C0D
 75
     0
 76
     1
 47
0.0407044778999864
 98
       13
 10
-34.18710075113677
 20
56.16907953933765
 10
-33.12851374392494
 20
56.49471602641233
 10
-33.12851374392494
 20
56.49471602641233
 10
-28.77202873835904
 20
57.51232930166111
 10
-24.41554807250941
 20
57.91937341678636
 10
-24.41554807250941
 20
59.384734621186
 10
-23.31624584658039
 20
58.3264175319116
 10
-19.04119127844888
 20
57.75655517324913
 10
-19.04119127844888
 20
57.75655517324913
 10
-14.64399105416578
 20
57.43091868617466
 10
-8.048195057457178
 20
57.22739662861204
 10
-4.017427461911665
 20
57.18669281458665
 10
-4.017427461911665
 20
57.18669281458665
  0
TEXT
  5
BED
330
B9E
100
AcDbEntity
  8
leg fin
100
AcDbText
 10
3.391127401597259
 20
2.107634911895729
 30
0.0
 40
1.5
  1
Este desenho é propriedade da Sanindusa, S.A., e não pode ser copiado nem divulgado sem nossa autorização.
 50
90.0
 41
0.8
  7
SANINDUSA
100
AcDbText
  0
LINE
  5
BEE
330
B9E
100
AcDbEntity
  8
3
100
AcDbLine
 10
-90.0
 20
4.0
 30
0.0
 11
-90.0
 21
12.0
 31
0.0
  0
TEXT
  5
BEF
330
B9E
100
AcDbEntity
  8
1
100
AcDbText
 10
-39.0
 20
9.25
 30
0.0
 40
2.0
  1
Substituido por:
 41
0.8
  7
SANINDUSA
 11
-39.0
 21
10.25
 31
0.0
100
AcDbText
 73
     2
  0
POINT
  5
BF0
330
B9E
100
AcDbEntity
  8
SANINDUSA
100
AcDbPoint
 10
0.0
 20
0.0
 30
0.0
  0
TEXT
  5
BF1
330
B9E
100
AcDbEntity
  8
1
100
AcDbText
 10
-89.0
 20
16.74927010445663
 30
0.0
 40
2.0
  1
Normas:
 41
0.8
  7
SANINDUSA
 11
-89.0
 21
17.74927010445663
 31
0.0
100
AcDbText
 73
     2
  0
LINE
  5
BF2
330
B9E
100
AcDbEntity
  8
3
100
AcDbLine
 10
-90.0
 20
12.0
 30
0.0
 11
-90.0
 21
20.0
 31
0.0
  0
LINE
  5
BF3
330
B9E
100
AcDbEntity
  8
3
100
AcDbLine
 10
-110.546019464768
 20
12.0
 30
0.0
 11
-110.546019464768
 21
20.0
 31
0.0
  0
TEXT
  5
BF4
330
B9E
100
AcDbEntity
  8
1
100
AcDbText
 10
-109.6177520618648
 20
17.25
 30
0.0
 40
2.0
  1
Cor:
 41
0.8
  7
SANINDUSA
 11
-109.6177520618648
 21
18.25
 31
0.0
100
AcDbText
 73
     2
  0
LINE
  5
BF5
330
B9E
100
AcDbEntity
  8
leg fin
100
AcDbLine
 10
-91.42857142857156
 20
20.0
 30
0.0
 11
-91.42857142857156
 21
28.5
 31
0.0
  0
LINE
  5
BF6
330
B9E
100
AcDbEntity
  8
leg fin
100
AcDbLine
 10
-104.2857142857142
 20
20.0
 30
0.0
 11
-104.2857142857142
 21
28.5
 31
0.0
  0
LINE
  5
BF7
330
B9E
100
AcDbEntity
  8
leg fin
100
AcDbLine
 10
-117.1428571428573
 20
20.0
 30
0.0
 11
-117.1428571428573
 21
28.5
 31
0.0
  0
POINT
  5
BF8
330
B9E
100
AcDbEntity
  8
SANINDUSA
100
AcDbPoint
 10
-117.1428571428573
 20
28.5
 30
0.0
  0
POINT
  5
BF9
330
B9E
100
AcDbEntity
  8
SANINDUSA
100
AcDbPoint
 10
-104.2857142857142
 20
28.5
 30
0.0
  0
POINT
  5
BFA
330
B9E
100
AcDbEntity
  8
SANINDUSA
100
AcDbPoint
 10
-91.42857142857156
 20
28.5
 30
0.0
  0
TEXT
  5
BFB
330
B9E
100
AcDbEntity
  8
1
100
AcDbText
 10
-116.200160604496
 20
26.43288406845113
 30
0.0
 40
1.5
  1
Nº Seq.:
 41
0.8
  7
SANINDUSA
 11
-116.200160604496
 21
27.18288406845113
 31
0.0
100
AcDbText
 73
     2
  0
TEXT
  5
BFC
330
B9E
100
AcDbEntity
  8
1
100
AcDbText
 10
-103.2106584078738
 20
26.43288406845113
 30
0.0
 40
1.5
  1
Tipo:
 41
0.8
  7
SANINDUSA
 11
-103.2106584078738
 21
27.18288406845113
 31
0.0
100
AcDbText
 73
     2
  0
TEXT
  5
BFD
330
B9E
100
AcDbEntity
  8
1
100
AcDbText
 10
-90.22114672289353
 20
26.43288406845113
 30
0.0
 40
1.5
  1
Prod.:
 41
0.8
  7
SANINDUSA
 11
-90.22114672289353
 21
27.18288406845113
 31
0.0
100
AcDbText
 73
     2
  0
TEXT
  5
BFE
330
B9E
100
AcDbEntity
  8
1
100
AcDbText
 10
-64.77320576346574
 20
26.43288406845113
 30
0.0
 40
1.5
  1
Rev.:
 41
0.8
  7
SANINDUSA
 11
-64.77320576346574
 21
27.18288406845113
 31
0.0
100
AcDbText
 73
     2
  0
LINE
  5
BFF
330
B9E
100
AcDbEntity
  8
leg fin
100
AcDbLine
 10
-52.85714285714266
 20
20.0
 30
0.0
 11
-52.85714285714266
 21
28.5
 31
0.0
  0
LINE
  5
C00
330
B9E
100
AcDbEntity
  8
leg fin
100
AcDbLine
 10
-65.71428571428578
 20
20.0
 30
0.0
 11
-65.71428571428578
 21
28.5
 31
0.0
  0
LINE
  5
C01
330
B9E
100
AcDbEntity
  8
leg fin
100
AcDbLine
 10
-78.57142857142844
 20
20.0
 30
0.0
 11
-78.57142857142844
 21
28.5
 31
0.0
  0
POINT
  5
C02
330
B9E
100
AcDbEntity
  8
SANINDUSA
100
AcDbPoint
 10
-78.57142857142844
 20
28.5
 30
0.0
  0
POINT
  5
C03
330
B9E
100
AcDbEntity
  8
SANINDUSA
100
AcDbPoint
 10
-65.71428571428578
 20
28.5
 30
0.0
  0
POINT
  5
C04
330
B9E
100
AcDbEntity
  8
SANINDUSA
100
AcDbPoint
 10
-52.85714285714266
 20
28.5
 30
0.0
  0
TEXT
  5
C05
330
B9E
100
AcDbEntity
  8
1
100
AcDbText
 10
-77.61097961686573
 20
26.43288406845113
 30
0.0
 40
1.5
  1
Peça:
 41
0.8
  7
SANINDUSA
 11
-77.61097961686573
 21
27.18288406845113
 31
0.0
100
AcDbText
 73
     2
  0
TEXT
  5
C06
330
B9E
100
AcDbEntity
  8
1
100
AcDbText
 10
-52.06538060077036
 20
26.43288406845113
 30
0.0
 40
1.5
  1
Alt.:
 41
0.8
  7
SANINDUSA
 11
-52.06538060077036
 21
27.18288406845113
 31
0.0
100
AcDbText
 73
     2
  0
LINE
  5
C07
330
B9E
100
AcDbEntity
  8
3
100
AcDbLine
 10
0.0
 20
12.0
 30
0.0
 11
-40.0
 21
12.0
 31
0.0
  0
LINE
  5
C08
330
B9E
100
AcDbEntity
  8
3
100
AcDbLine
 10
-40.0
 20
32.5
 30
0.0
 11
0.0
 21
32.5
 31
0.0
  0
TEXT
  5
C09
330
B9E
100
AcDbEntity
  8
1
100
AcDbText
 10
-19.0
 20
29.75
 30
0.0
 40
2.0
  1
Folha:
 41
0.8
  7
SANINDUSA
 11
-19.0
 21
30.75
 31
0.0
100
AcDbText
 73
     2
  0
LINE
  5
C0A
330
B9E
100
AcDbEntity
  8
3
100
AcDbLine
 10
-20.0
 20
32.5
 30
0.0
 11
-20.0
 21
20.0
 31
0.0
  0
TEXT
  5
C0B
330
B9E
100
AcDbEntity
  8
1
100
AcDbText
 10
-39.0
 20
29.75
 30
0.0
 40
2.0
  1
Escala:
 41
0.8
  7
SANINDUSA
 11
-39.0
 21
30.75
 31
0.0
100
AcDbText
 73
     2
  0
TEXT
  5
C0C
330
B9E
100
AcDbEntity
  8
1
100
AcDbText
 10
-39.0
 20
17.25
 30
0.0
 40
2.0
  1
Substitui:
 41
0.8
  7
SANINDUSA
 11
-39.0
 21
18.25
 31
0.0
100
AcDbText
 73
     2
  0
LWPOLYLINE
  5
C0D
102
{ACAD_REACTORS
330
BEC
102
}
330
B9E
100
AcDbEntity
  8
9
100
AcDbPolyline
 90
        6
 70
     1
 43
0.0
 10
-2.638748516194482
 20
57.02796337120571
 10
-2.638748516194482
 20
55.50786840766477
 10
-5.21497371544865
 20
55.507868407665
 42
-0.4142135623730898
 10
-5.614973715448741
 20
55.90786840766487
 10
-5.614973715448741
 20
56.62796337120562
 42
-0.4142135623731576
 10
-5.21497371544865
 20
57.02796337120571
  0
LINE
  5
C0E
330
B9E
100
AcDbEntity
  8
3
100
AcDbLine
 10
-40.0
 20
50.0
 30
0.0
 11
0.0
 21
50.0
 31
0.0
  0
ATTDEF
  5
C0F
330
B9E
100
AcDbEntity
  8
1
100
AcDbText
 10
-31.30691739422431
 20
40.25
 30
0.0
 40
2.0
  1
XXXXXXXXXXXXXXX
 41
0.8
  7
SANINDUSA
 72
     4
 11
-20.0
 21
41.25
 31
0.0
100
AcDbAttributeDefinition
  3
Observações:
  2
OBS
 70
     0
  0
TEXT
  5
C10
330
B9E
100
AcDbEntity
  8
1
100
AcDbText
 10
-39.0
 20
47.25
 30
0.0
 40
2.0
  1
Observações:
 41
0.8
  7
SANINDUSA
 11
-39.0
 21
48.25
 31
0.0
100
AcDbText
 73
     2
  0
LWPOLYLINE
  5
C11
102
{ACAD_REACTORS
330
BEC
102
}
330
B9E
100
AcDbEntity
  8
9
100
AcDbPolyline
 90
        6
 70
     1
 43
0.0
 10
-29.98468712904878
 20
57.02796337120571
 10
-29.98468712904878
 20
55.507868407665
 10
-32.57692046803459
 20
55.507868407665
 42
-0.4142135623731731
 10
-32.97692046803468
 20
55.90786840766487
 10
-32.97692046803468
 20
56.62796337120562
 42
-0.4142135623731576
 10
-32.57692046803459
 20
57.02796337120571
  0
LWPOLYLINE
  5
C12
102
{ACAD_REACTORS
330
BEC
102
}
330
B9E
100
AcDbEntity
  8
9
100
AcDbPolyline
 90
        4
 70
     1
 43
0.0
 10
-24.19231812786165
 20
59.87619128370352
 10
-24.57637781922995
 20
59.87619128370352
 10
-24.57637781922995
 20
59.28412752246913
 10
-24.19231812786165
 20
59.28412752246913
  0
ENDBLK
  5
C14
330
B9E
100
AcDbEntity
  8
0
100
AcDbBlockEnd
  0
BLOCK
  5
10B4
330
10B3
100
AcDbEntity
  8
0
100
AcDbBlockBegin
  2
*D7
 70
     1
 10
0.0
 20
0.0
 30
0.0
  3
*D7
  1

  0
LINE
  5
10B5
330
10B3
100
AcDbEntity
  8
cotas
100
AcDbLine
 10
3874.781477025726
 20
1717.312614212409
 30
0.0
 11
3874.781477025726
 21
1782.312614212409
 31
0.0
  0
LINE
  5
10B6
330
10B3
100
AcDbEntity
  8
cotas
100
AcDbLine
 10
4424.781477025726
 20
1717.312614212409
 30
0.0
 11
4424.781477025726
 21
1782.312614212409
 31
0.0
  0
LINE
  5
10B7
330
10B3
100
AcDbEntity
  8
cotas
100
AcDbLine
 10
3884.781477025727
 20
1777.312614212409
 30
0.0
 11
4414.781477025726
 21
1777.312614212409
 31
0.0
  0
SOLID
  5
10B8
330
10B3
100
AcDbEntity
  8
cotas
100
AcDbTrace
 10
3884.781477025727
 20
1778.979280879076
 30
0.0
 11
3884.781477025727
 21
1775.645947545742
 31
0.0
 12
3874.781477025726
 22
1777.312614212409
 32
0.0
 13
3874.781477025726
 23
1777.312614212409
 33
0.0
  0
SOLID
  5
10B9
330
10B3
100
AcDbEntity
  8
cotas
100
AcDbTrace
 10
4414.781477025726
 20
1778.979280879076
 30
0.0
 11
4414.781477025726
 21
1775.645947545742
 31
0.0
 12
4424.781477025726
 22
1777.312614212409
 32
0.0
 13
4424.781477025726
 23
1777.312614212409
 33
0.0
  0
MTEXT
  5
10BA
330
10B3
100
AcDbEntity
  8
cotas
100
AcDbMText
 10
4149.781477025726
 20
1787.517449672449
 30
0.0
 40
10.0
 41
0.0
 71
     5
 72
     1
  1
550
  7
SANINDUSA
 73
     1
 44
1.0
1001
ACAD
1000
MTEXTBEGIN
1070
    73
1070
     1
1070
    44
1040
1.0
1070
    74
1070
     0
1000
MTEXTEND
  0
POINT
  5
10BB
330
10B3
100
AcDbEntity
  8
Defpoints
 62
     0
100
AcDbPoint
 10
3874.781477025726
 20
1712.312614212409
 30
0.0
  0
POINT
  5
10BC
330
10B3
100
AcDbEntity
  8
Defpoints
 62
     0
100
AcDbPoint
 10
4424.781477025726
 20
1712.312614212409
 30
0.0
  0
POINT
  5
10BD
330
10B3
100
AcDbEntity
  8
Defpoints
 62
     0
100
AcDbPoint
 10
4424.781477025726
 20
1777.312614212409
 30
0.0
  0
ENDBLK
  5
10BE
330
10B3
100
AcDbEntity
  8
0
100
AcDbBlockEnd
  0
BLOCK
  5
10C0
330
10BF
100
AcDbEntity
  8
0
100
AcDbBlockBegin
  2
*D8
 70
     1
 10
0.0
 20
0.0
 30
0.0
  3
*D8
  1

  0
LINE
  5
10C1
330
10BF
100
AcDbEntity
  8
cotas
100
AcDbLine
 10
4389.781477025726
 20
1752.312614212409
 30
0.0
 11
4456.779250149264
 21
1752.312614212409
 31
0.0
  0
LINE
  5
10C2
330
10BF
100
AcDbEntity
  8
cotas
100
AcDbLine
 10
4389.781477025726
 20
1452.312614212409
 30
0.0
 11
4456.779250149264
 21
1452.312614212409
 31
0.0
  0
LINE
  5
10C3
330
10BF
100
AcDbEntity
  8
cotas
100
AcDbLine
 10
4451.779250149264
 20
1742.312614212409
 30
0.0
 11
4451.779250149264
 21
1462.312614212409
 31
0.0
  0
SOLID
  5
10C4
330
10BF
100
AcDbEntity
  8
cotas
100
AcDbTrace
 10
4450.112583482597
 20
1742.312614212409
 30
0.0
 11
4453.445916815931
 21
1742.312614212409
 31
0.0
 12
4451.779250149264
 22
1752.312614212409
 32
0.0
 13
4451.779250149264
 23
1752.312614212409
 33
0.0
  0
SOLID
  5
10C5
330
10BF
100
AcDbEntity
  8
cotas
100
AcDbTrace
 10
4450.112583482597
 20
1462.312614212409
 30
0.0
 11
4453.445916815931
 21
1462.312614212409
 31
0.0
 12
4451.779250149264
 22
1452.312614212409
 32
0.0
 13
4451.779250149264
 23
1452.312614212409
 33
0.0
  0
MTEXT
  5
10C6
330
10BF
100
AcDbEntity
  8
cotas
100
AcDbMText
 10
4441.571056730862
 20
1602.31261421241
 30
0.0
 40
10.0
 41
0.0
 71
     5
 72
     1
  1
300
  7
SANINDUSA
 11
0.0000000000000001
 21
1.0
 31
0.0
 73
     1
 44
1.0
1001
ACAD
1000
MTEXTBEGIN
1070
    73
1070
     1
1070
    44
1040
1.0
1070
    74
1070
     0
1000
MTEXTEND
  0
POINT
  5
10C7
330
10BF
100
AcDbEntity
  8
Defpoints
 62
     0
100
AcDbPoint
 10
4384.781477025726
 20
1752.312614212409
 30
0.0
  0
POINT
  5
10C8
330
10BF
100
AcDbEntity
  8
Defpoints
 62
     0
100
AcDbPoint
 10
4384.781477025726
 20
1452.312614212409
 30
0.0
  0
POINT
  5
10C9
330
10BF
100
AcDbEntity
  8
Defpoints
 62
     0
100
AcDbPoint
 10
4451.779250149264
 20
1452.312614212409
 30
0.0
  0
ENDBLK
  5
10CA
330
10BF
100
AcDbEntity
  8
0
100
AcDbBlockEnd
  0
BLOCK
  5
10CC
330
10CB
100
AcDbEntity
  8
0
100
AcDbBlockBegin
  2
*D9
 70
     1
 10
0.0
 20
0.0
 30
0.0
  3
*D9
  1

  0
LINE
  5
10CD
330
10CB
100
AcDbEntity
  8
cotas
100
AcDbLine
 10
3131.509363987222
 20
1717.312614212411
 30
0.0
 11
3131.509363987222
 21
1782.312614212411
 31
0.0
  0
LINE
  5
10CE
330
10CB
100
AcDbEntity
  8
cotas
100
AcDbLine
 10
3466.509360410944
 20
1746.039902458565
 30
0.0
 11
3466.509360410944
 21
1782.312614212411
 31
0.0
  0
LINE
  5
10CF
330
10CB
100
AcDbEntity
  8
cotas
100
AcDbLine
 10
3141.509363987222
 20
1777.312614212411
 30
0.0
 11
3456.509360410944
 21
1777.312614212411
 31
0.0
  0
SOLID
  5
10D0
330
10CB
100
AcDbEntity
  8
cotas
100
AcDbTrace
 10
3141.509363987222
 20
1778.979280879078
 30
0.0
 11
3141.509363987222
 21
1775.645947545745
 31
0.0
 12
3131.509363987222
 22
1777.312614212411
 32
0.0
 13
3131.509363987222
 23
1777.312614212411
 33
0.0
  0
SOLID
  5
10D1
330
10CB
100
AcDbEntity
  8
cotas
100
AcDbTrace
 10
3456.509360410944
 20
1778.979280879078
 30
0.0
 11
3456.509360410944
 21
1775.645947545745
 31
0.0
 12
3466.509360410944
 22
1777.312614212411
 32
0.0
 13
3466.509360410944
 23
1777.312614212411
 33
0.0
  0
MTEXT
  5
10D2
330
10CB
100
AcDbEntity
  8
cotas
100
AcDbMText
 10
3299.009362199083
 20
1787.520807630813
 30
0.0
 40
10.0
 41
0.0
 71
     5
 72
     1
  1
335
  7
SANINDUSA
 73
     1
 44
1.0
1001
ACAD
1000
MTEXTBEGIN
1070
    73
1070
     1
1070
    44
1040
1.0
1070
    74
1070
     0
1000
MTEXTEND
  0
POINT
  5
10D3
330
10CB
100
AcDbEntity
  8
Defpoints
 62
     0
100
AcDbPoint
 10
3131.509363987222
 20
1712.312614212411
 30
0.0
  0
POINT
  5
10D4
330
10CB
100
AcDbEntity
  8
Defpoints
 62
     0
100
AcDbPoint
 10
3466.509360410944
 20
1741.039902458565
 30
0.0
  0
POINT
  5
10D5
330
10CB
100
AcDbEntity
  8
Defpoints
 62
     0
100
AcDbPoint
 10
3466.509360410944
 20
1777.312614212411
 30
0.0
  0
ENDBLK
  5
10D6
330
10CB
100
AcDbEntity
  8
0
100
AcDbBlockEnd
  0
BLOCK
  5
10D8
330
10D7
100
AcDbEntity
  8
0
100
AcDbBlockBegin
  2
*D10
 70
     1
 10
0.0
 20
0.0
 30
0.0
  3
*D10
  1

  0
LINE
  5
10D9
330
10D7
100
AcDbEntity
  8
cotas
100
AcDbLine
 10
4424.781477025726
 20
922.4860539577894
 30
0.0
 11
4424.781477025726
 21
722.4860539577893
 31
0.0
  0
LINE
  5
10DA
330
10D7
100
AcDbEntity
  8
cotas
100
AcDbLine
 10
4334.82147702572
 20
898.4389210376994
 30
0.0
 11
4334.82147702572
 21
722.4860539577893
 31
0.0
  0
LINE
  5
10DB
330
10D7
100
AcDbEntity
  8
cotas
100
AcDbLine
 10
4414.781477025726
 20
727.4860539577893
 30
0.0
 11
4344.82147702572
 21
727.4860539577893
 31
0.0
  0
SOLID
  5
10DC
330
10D7
100
AcDbEntity
  8
cotas
100
AcDbTrace
 10
4414.781477025726
 20
729.152720624456
 30
0.0
 11
4414.781477025726
 21
725.8193872911228
 31
0.0
 12
4424.781477025726
 22
727.4860539577893
 32
0.0
 13
4424.781477025726
 23
727.4860539577893
 33
0.0
  0
SOLID
  5
10DD
330
10D7
100
AcDbEntity
  8
cotas
100
AcDbTrace
 10
4344.82147702572
 20
729.152720624456
 30
0.0
 11
4344.82147702572
 21
725.8193872911228
 31
0.0
 12
4334.82147702572
 22
727.4860539577893
 32
0.0
 13
4334.82147702572
 23
727.4860539577893
 33
0.0
  0
MTEXT
  5
10DE
330
10D7
100
AcDbEntity
  8
cotas
100
AcDbMText
 10
4379.801477025723
 20
737.6908894178296
 30
0.0
 40
10.0
 41
0.0
 71
     5
 72
     1
  1
90
  7
SANINDUSA
 73
     1
 44
1.0
1001
ACAD
1000
MTEXTBEGIN
1070
    73
1070
     1
1070
    44
1040
1.0
1070
    74
1070
     0
1000
MTEXTEND
  0
POINT
  5
10DF
330
10D7
100
AcDbEntity
  8
Defpoints
 62
     0
100
AcDbPoint
 10
4424.781477025726
 20
927.4860539577893
 30
0.0
  0
POINT
  5
10E0
330
10D7
100
AcDbEntity
  8
Defpoints
 62
     0
100
AcDbPoint
 10
4334.82147702572
 20
903.4389210376994
 30
0.0
  0
POINT
  5
10E1
330
10D7
100
AcDbEntity
  8
Defpoints
 62
     0
100
AcDbPoint
 10
4334.82147702572
 20
727.4860539577893
 30
0.0
  0
ENDBLK
  5
10E2
330
10D7
100
AcDbEntity
  8
0
100
AcDbBlockEnd
  0
BLOCK
  5
10E4
330
10E3
100
AcDbEntity
  8
0
100
AcDbBlockBegin
  2
*D11
 70
     1
 10
0.0
 20
0.0
 30
0.0
  3
*D11
  1

  0
LINE
  5
10E5
330
10E3
100
AcDbEntity
  8
cotas
100
AcDbLine
 10
4334.82147702572
 20
898.4389210376994
 30
0.0
 11
4334.82147702572
 21
722.4860539577893
 31
0.0
  0
LINE
  5
10E6
330
10E3
100
AcDbEntity
  8
cotas
100
AcDbLine
 10
4169.82147702572
 20
902.5744707286023
 30
0.0
 11
4169.82147702572
 21
722.4860539577893
 31
0.0
  0
LINE
  5
10E7
330
10E3
100
AcDbEntity
  8
cotas
100
AcDbLine
 10
4324.82147702572
 20
727.4860539577893
 30
0.0
 11
4179.82147702572
 21
727.4860539577893
 31
0.0
  0
SOLID
  5
10E8
330
10E3
100
AcDbEntity
  8
cotas
100
AcDbTrace
 10
4324.82147702572
 20
729.152720624456
 30
0.0
 11
4324.82147702572
 21
725.8193872911228
 31
0.0
 12
4334.82147702572
 22
727.4860539577893
 32
0.0
 13
4334.82147702572
 23
727.4860539577893
 33
0.0
  0
SOLID
  5
10E9
330
10E3
100
AcDbEntity
  8
cotas
100
AcDbTrace
 10
4179.82147702572
 20
729.152720624456
 30
0.0
 11
4179.82147702572
 21
725.8193872911228
 31
0.0
 12
4169.82147702572
 22
727.4860539577893
 32
0.0
 13
4169.82147702572
 23
727.4860539577893
 33
0.0
  0
MTEXT
  5
10EA
330
10E3
100
AcDbEntity
  8
cotas
100
AcDbMText
 10
4252.321477025719
 20
737.6841735011071
 30
0.0
 40
10.0
 41
0.0
 71
     5
 72
     1
  1
165
  7
SANINDUSA
 73
     1
 44
1.0
1001
ACAD
1000
MTEXTBEGIN
1070
    73
1070
     1
1070
    44
1040
1.0
1070
    74
1070
     0
1000
MTEXTEND
  0
POINT
  5
10EB
330
10E3
100
AcDbEntity
  8
Defpoints
 62
     0
100
AcDbPoint
 10
4334.82147702572
 20
903.4389210376994
 30
0.0
  0
POINT
  5
10EC
330
10E3
100
AcDbEntity
  8
Defpoints
 62
     0
100
AcDbPoint
 10
4169.82147702572
 20
907.5744707286022
 30
0.0
  0
POINT
  5
10ED
330
10E3
100
AcDbEntity
  8
Defpoints
 62
     0
100
AcDbPoint
 10
4169.82147702572
 20
727.4860539577893
 30
0.0
  0
ENDBLK
  5
10EE
330
10E3
100
AcDbEntity
  8
0
100
AcDbBlockEnd
  0
BLOCK
  5
10F0
330
10EF
100
AcDbEntity
  8
0
100
AcDbBlockBegin
  2
*D12
 70
     1
 10
0.0
 20
0.0
 30
0.0
  3
*D12
  1

  0
LINE
  5
10F1
330
10EF
100
AcDbEntity
  8
cotas
100
AcDbLine
 10
4169.82147702572
 20
886.486053957789
 30
0.0
 11
4169.82147702572
 21
697.4860539577893
 31
0.0
  0
LINE
  5
10F2
330
10EF
100
AcDbEntity
  8
cotas
100
AcDbLine
 10
4424.781477025726
 20
922.4860539577894
 30
0.0
 11
4424.781477025726
 21
697.4860539577893
 31
0.0
  0
LINE
  5
10F3
330
10EF
100
AcDbEntity
  8
cotas
100
AcDbLine
 10
4179.82147702572
 20
702.4860539577893
 30
0.0
 11
4414.781477025726
 21
702.4860539577893
 31
0.0
  0
SOLID
  5
10F4
330
10EF
100
AcDbEntity
  8
cotas
100
AcDbTrace
 10
4179.82147702572
 20
704.152720624456
 30
0.0
 11
4179.82147702572
 21
700.8193872911228
 31
0.0
 12
4169.82147702572
 22
702.4860539577893
 32
0.0
 13
4169.82147702572
 23
702.4860539577893
 33
0.0
  0
SOLID
  5
10F5
330
10EF
100
AcDbEntity
  8
cotas
100
AcDbTrace
 10
4414.781477025726
 20
704.152720624456
 30
0.0
 11
4414.781477025726
 21
700.8193872911228
 31
0.0
 12
4424.781477025726
 22
702.4860539577893
 32
0.0
 13
4424.781477025726
 23
702.4860539577893
 33
0.0
  0
MTEXT
  5
10F6
330
10EF
100
AcDbEntity
  8
cotas
100
AcDbMText
 10
4297.301477025722
 20
712.694247376191
 30
0.0
 40
10.0
 41
0.0
 71
     5
 72
     1
  1
255
  7
SANINDUSA
 73
     1
 44
1.0
1001
ACAD
1000
MTEXTBEGIN
1070
    73
1070
     1
1070
    44
1040
1.0
1070
    74
1070
     0
1000
MTEXTEND
  0
POINT
  5
10F7
330
10EF
100
AcDbEntity
  8
Defpoints
 62
     0
100
AcDbPoint
 10
4169.82147702572
 20
891.4860539577889
 30
0.0
  0
POINT
  5
10F8
330
10EF
100
AcDbEntity
  8
Defpoints
 62
     0
100
AcDbPoint
 10
4424.781477025726
 20
927.4860539577893
 30
0.0
  0
POINT
  5
10F9
330
10EF
100
AcDbEntity
  8
Defpoints
 62
     0
100
AcDbPoint
 10
4424.781477025726
 20
702.4860539577893
 30
0.0
  0
ENDBLK
  5
10FA
330
10EF
100
AcDbEntity
  8
0
100
AcDbBlockEnd
  0
BLOCK
  5
10FC
330
10FB
100
AcDbEntity
  8
0
100
AcDbBlockBegin
  2
*D13
 70
     1
 10
0.0
 20
0.0
 30
0.0
  3
*D13
  1

  0
LINE
  5
10FD
330
10FB
100
AcDbEntity
  8
cotas
100
AcDbLine
 10
4334.82147702572
 20
956.5331868778795
 30
0.0
 11
4334.82147702572
 21
1117.662887499415
 31
0.0
  0
LINE
  5
10FE
330
10FB
100
AcDbEntity
  8
cotas
100
AcDbLine
 10
4279.741277865144
 20
932.4860539577894
 30
0.0
 11
4279.741277865144
 21
1117.662887499415
 31
0.0
  0
LINE
  5
10FF
330
10FB
100
AcDbEntity
  8
cotas
100
AcDbLine
 10
4324.821477025721
 20
1112.662887499415
 30
0.0
 11
4289.741277865144
 21
1112.662887499415
 31
0.0
  0
SOLID
  5
1100
330
10FB
100
AcDbEntity
  8
cotas
100
AcDbTrace
 10
4324.821477025721
 20
1114.329554166082
 30
0.0
 11
4324.821477025721
 21
1110.996220832748
 31
0.0
 12
4334.82147702572
 22
1112.662887499415
 32
0.0
 13
4334.82147702572
 23
1112.662887499415
 33
0.0
  0
SOLID
  5
1101
330
10FB
100
AcDbEntity
  8
cotas
100
AcDbTrace
 10
4289.741277865144
 20
1114.329554166082
 30
0.0
 11
4289.741277865144
 21
1110.996220832748
 31
0.0
 12
4279.741277865144
 22
1112.662887499415
 32
0.0
 13
4279.741277865144
 23
1112.662887499415
 33
0.0
  0
MTEXT
  5
1102
330
10FB
100
AcDbEntity
  8
cotas
100
AcDbMText
 10
4307.281377445432
 20
1123.922121884908
 30
0.0
 40
10.0
 41
0.0
 71
     5
 72
     1
  1
55,1
  7
SANINDUSA
 73
     1
 44
1.0
1001
ACAD
1000
MTEXTBEGIN
1070
    73
1070
     1
1070
    44
1040
1.0
1070
    74
1070
     0
1000
MTEXTEND
  0
POINT
  5
1103
330
10FB
100
AcDbEntity
  8
Defpoints
 62
     0
100
AcDbPoint
 10
4334.82147702572
 20
951.5331868778794
 30
0.0
  0
POINT
  5
1104
330
10FB
100
AcDbEntity
  8
Defpoints
 62
     0
100
AcDbPoint
 10
4279.741277865144
 20
927.4860539577893
 30
0.0
  0
POINT
  5
1105
330
10FB
100
AcDbEntity
  8
Defpoints
 62
     0
100
AcDbPoint
 10
4279.741277865144
 20
1112.662887499415
 30
0.0
  0
ENDBLK
  5
1106
330
10FB
100
AcDbEntity
  8
0
100
AcDbBlockEnd
  0
BLOCK
  5
1108
330
1107
100
AcDbEntity
  8
0
100
AcDbBlockBegin
  2
*D14
 70
     1
 10
0.0
 20
0.0
 30
0.0
  3
*D14
  1

  0
LINE
  5
1109
330
1107
100
AcDbEntity
  8
cotas
100
AcDbLine
 10
4279.741277865144
 20
932.4860539577894
 30
0.0
 11
4279.741277865144
 21
1117.662887499415
 31
0.0
  0
LINE
  5
110A
330
1107
100
AcDbEntity
  8
cotas
100
AcDbLine
 10
3910.137419721783
 20
932.4860539577894
 30
0.0
 11
3910.137419721783
 21
1117.662887499415
 31
0.0
  0
LINE
  5
110B
330
1107
100
AcDbEntity
  8
cotas
100
AcDbLine
 10
4269.741277865144
 20
1112.662887499415
 30
0.0
 11
3920.137419721783
 21
1112.662887499415
 31
0.0
  0
SOLID
  5
110C
330
1107
100
AcDbEntity
  8
cotas
100
AcDbTrace
 10
4269.741277865144
 20
1114.329554166082
 30
0.0
 11
4269.741277865144
 21
1110.996220832748
 31
0.0
 12
4279.741277865144
 22
1112.662887499415
 32
0.0
 13
4279.741277865144
 23
1112.662887499415
 33
0.0
  0
SOLID
  5
110D
330
1107
100
AcDbEntity
  8
cotas
100
AcDbTrace
 10
3920.137419721783
 20
1114.329554166082
 30
0.0
 11
3920.137419721783
 21
1110.996220832748
 31
0.0
 12
3910.137419721783
 22
1112.662887499415
 32
0.0
 13
3910.137419721783
 23
1112.662887499415
 33
0.0
  0
MTEXT
  5
110E
330
1107
100
AcDbEntity
  8
cotas
100
AcDbMText
 10
4094.939348793463
 20
1124.009428802303
 30
0.0
 40
10.0
 41
0.0
 71
     5
 72
     1
  1
369,6
  7
SANINDUSA
 73
     1
 44
1.0
1001
ACAD
1000
MTEXTBEGIN
1070
    73
1070
     1
1070
    44
1040
1.0
1070
    74
1070
     0
1000
MTEXTEND
  0
POINT
  5
110F
330
1107
100
AcDbEntity
  8
Defpoints
 62
     0
100
AcDbPoint
 10
4279.741277865144
 20
927.4860539577893
 30
0.0
  0
POINT
  5
1110
330
1107
100
AcDbEntity
  8
Defpoints
 62
     0
100
AcDbPoint
 10
3910.137419721783
 20
927.4860539577893
 30
0.0
  0
POINT
  5
1111
330
1107
100
AcDbEntity
  8
Defpoints
 62
     0
100
AcDbPoint
 10
3910.137419721783
 20
1112.662887499415
 30
0.0
  0
ENDBLK
  5
1112
330
1107
100
AcDbEntity
  8
0
100
AcDbBlockEnd
  0
BLOCK
  5
1114
330
1113
100
AcDbEntity
  8
0
100
AcDbBlockBegin
  2
*D15
 70
     1
 10
0.0
 20
0.0
 30
0.0
  3
*D15
  1

  0
LINE
  5
1115
330
1113
100
AcDbEntity
  8
cotas
100
AcDbLine
 10
3910.137420467118
 20
932.4860539577894
 30
0.0
 11
3910.137420467118
 21
1117.662887499415
 31
0.0
  0
LINE
  5
1116
330
1113
100
AcDbEntity
  8
cotas
100
AcDbLine
 10
3874.781477025726
 20
932.4860539577894
 30
0.0
 11
3874.781477025726
 21
1117.662887499415
 31
0.0
  0
LINE
  5
1117
330
1113
100
AcDbEntity
  8
cotas
100
AcDbLine
 10
3900.137420467117
 20
1112.662887499415
 30
0.0
 11
3884.781477025726
 21
1112.662887499415
 31
0.0
  0
LINE
  5
1118
330
1113
100
AcDbEntity
  8
cotas
100
AcDbLine
 10
3874.781477025726
 20
1112.662887499415
 30
0.0
 11
3825.332182196982
 21
1112.662887499415
 31
0.0
  0
SOLID
  5
1119
330
1113
100
AcDbEntity
  8
cotas
100
AcDbTrace
 10
3900.137420467117
 20
1114.329554166082
 30
0.0
 11
3900.137420467117
 21
1110.996220832748
 31
0.0
 12
3910.137420467118
 22
1112.662887499415
 32
0.0
 13
3910.137420467118
 23
1112.662887499415
 33
0.0
  0
SOLID
  5
111A
330
1113
100
AcDbEntity
  8
cotas
100
AcDbTrace
 10
3884.781477025726
 20
1114.329554166082
 30
0.0
 11
3884.781477025726
 21
1110.996220832748
 31
0.0
 12
3874.781477025726
 22
1112.662887499415
 32
0.0
 13
3874.781477025726
 23
1112.662887499415
 33
0.0
  0
MTEXT
  5
111B
330
1113
100
AcDbEntity
  8
cotas
100
AcDbMText
 10
3845.056829611354
 20
1124.009428802303
 30
0.0
 40
10.0
 41
0.0
 71
     5
 72
     1
  1
35,4
  7
SANINDUSA
 73
     1
 44
1.0
1001
ACAD
1000
MTEXTBEGIN
1070
    73
1070
     1
1070
    44
1040
1.0
1070
    74
1070
     0
1000
MTEXTEND
  0
POINT
  5
111C
330
1113
100
AcDbEntity
  8
Defpoints
 62
     0
100
AcDbPoint
 10
3910.137420467118
 20
927.4860539577893
 30
0.0
  0
POINT
  5
111D
330
1113
100
AcDbEntity
  8
Defpoints
 62
     0
100
AcDbPoint
 10
3874.781477025726
 20
927.4860539577893
 30
0.0
  0
POINT
  5
111E
330
1113
100
AcDbEntity
  8
Defpoints
 62
     0
100
AcDbPoint
 10
3874.781477025726
 20
1112.662887499415
 30
0.0
  0
ENDBLK
  5
111F
330
1113
100
AcDbEntity
  8
0
100
AcDbBlockEnd
  0
BLOCK
  5
1121
330
1120
100
AcDbEntity
  8
0
100
AcDbBlockBegin
  2
*D16
 70
     1
 10
0.0
 20
0.0
 30
0.0
  3
*D16
  1

  0
LINE
  5
1122
330
1120
100
AcDbEntity
  8
cotas
100
AcDbLine
 10
4334.82147702572
 20
956.5331868778795
 30
0.0
 11
4334.82147702572
 21
1117.662887499415
 31
0.0
  0
LINE
  5
1123
330
1120
100
AcDbEntity
  8
cotas
100
AcDbLine
 10
4424.781477025726
 20
932.4860539577894
 30
0.0
 11
4424.781477025726
 21
1117.662887499415
 31
0.0
  0
LINE
  5
1124
330
1120
100
AcDbEntity
  8
cotas
100
AcDbLine
 10
4344.82147702572
 20
1112.662887499415
 30
0.0
 11
4414.781477025726
 21
1112.662887499415
 31
0.0
  0
SOLID
  5
1125
330
1120
100
AcDbEntity
  8
cotas
100
AcDbTrace
 10
4344.82147702572
 20
1114.329554166082
 30
0.0
 11
4344.82147702572
 21
1110.996220832748
 31
0.0
 12
4334.82147702572
 22
1112.662887499415
 32
0.0
 13
4334.82147702572
 23
1112.662887499415
 33
0.0
  0
SOLID
  5
1126
330
1120
100
AcDbEntity
  8
cotas
100
AcDbTrace
 10
4414.781477025726
 20
1114.329554166082
 30
0.0
 11
4414.781477025726
 21
1110.996220832748
 31
0.0
 12
4424.781477025726
 22
1112.662887499415
 32
0.0
 13
4424.781477025726
 23
1112.662887499415
 33
0.0
  0
MTEXT
  5
1127
330
1120
100
AcDbEntity
  8
cotas
100
AcDbMText
 10
4379.801477025723
 20
1122.867722959455
 30
0.0
 40
10.0
 41
0.0
 71
     5
 72
     1
  1
90
  7
SANINDUSA
 73
     1
 44
1.0
1001
ACAD
1000
MTEXTBEGIN
1070
    73
1070
     1
1070
    44
1040
1.0
1070
    74
1070
     0
1000
MTEXTEND
  0
POINT
  5
1128
330
1120
100
AcDbEntity
  8
Defpoints
 62
     0
100
AcDbPoint
 10
4334.82147702572
 20
951.5331868778794
 30
0.0
  0
POINT
  5
1129
330
1120
100
AcDbEntity
  8
Defpoints
 62
     0
100
AcDbPoint
 10
4424.781477025726
 20
927.4860539577893
 30
0.0
  0
POINT
  5
112A
330
1120
100
AcDbEntity
  8
Defpoints
 62
     0
100
AcDbPoint
 10
4424.781477025726
 20
1112.662887499415
 30
0.0
  0
ENDBLK
  5
112B
330
1120
100
AcDbEntity
  8
0
100
AcDbBlockEnd
  0
BLOCK
  5
112D
330
112C
100
AcDbEntity
  8
0
100
AcDbBlockBegin
  2
*D17
 70
     1
 10
0.0
 20
0.0
 30
0.0
  3
*D17
  1

  0
LINE
  5
112E
330
112C
100
AcDbEntity
  8
cotas
100
AcDbLine
 10
4169.82147702572
 20
886.486053957789
 30
0.0
 11
4169.82147702572
 21
697.4860539577893
 31
0.0
  0
LINE
  5
112F
330
112C
100
AcDbEntity
  8
cotas
100
AcDbLine
 10
3874.781477025726
 20
922.4860539577894
 30
0.0
 11
3874.781477025726
 21
697.4860539577893
 31
0.0
  0
LINE
  5
1130
330
112C
100
AcDbEntity
  8
cotas
100
AcDbLine
 10
4159.82147702572
 20
702.4860539577893
 30
0.0
 11
3884.781477025727
 21
702.4860539577893
 31
0.0
  0
SOLID
  5
1131
330
112C
100
AcDbEntity
  8
cotas
100
AcDbTrace
 10
4159.82147702572
 20
704.152720624456
 30
0.0
 11
4159.82147702572
 21
700.8193872911228
 31
0.0
 12
4169.82147702572
 22
702.4860539577893
 32
0.0
 13
4169.82147702572
 23
702.4860539577893
 33
0.0
  0
SOLID
  5
1132
330
112C
100
AcDbEntity
  8
cotas
100
AcDbTrace
 10
3884.781477025727
 20
704.152720624456
 30
0.0
 11
3884.781477025727
 21
700.8193872911228
 31
0.0
 12
3874.781477025726
 22
702.4860539577893
 32
0.0
 13
3874.781477025726
 23
702.4860539577893
 33
0.0
  0
MTEXT
  5
1133
330
112C
100
AcDbEntity
  8
cotas
100
AcDbMText
 10
4022.301477025723
 20
712.694247376191
 30
0.0
 40
10.0
 41
0.0
 71
     5
 72
     1
  1
295
  7
SANINDUSA
 73
     1
 44
1.0
1001
ACAD
1000
MTEXTBEGIN
1070
    73
1070
     1
1070
    44
1040
1.0
1070
    74
1070
     0
1000
MTEXTEND
  0
POINT
  5
1134
330
112C
100
AcDbEntity
  8
Defpoints
 62
     0
100
AcDbPoint
 10
4169.82147702572
 20
891.4860539577889
 30
0.0
  0
POINT
  5
1135
330
112C
100
AcDbEntity
  8
Defpoints
 62
     0
100
AcDbPoint
 10
3874.781477025726
 20
927.4860539577893
 30
0.0
  0
POINT
  5
1136
330
112C
100
AcDbEntity
  8
Defpoints
 62
     0
100
AcDbPoint
 10
3874.781477025726
 20
702.4860539577893
 30
0.0
  0
ENDBLK
  5
1137
330
112C
100
AcDbEntity
  8
0
100
AcDbBlockEnd
  0
BLOCK
  5
1139
330
1138
100
AcDbEntity
  8
0
100
AcDbBlockBegin
  2
*D18
 70
     1
 10
0.0
 20
0.0
 30
0.0
  3
*D18
  1

  0
LINE
  5
113A
330
1138
100
AcDbEntity
  8
cotas
100
AcDbLine
 10
4125.866406432369
 20
787.4790200136595
 30
0.0
 11
3795.332182196982
 21
787.4790200136596
 31
0.0
  0
LINE
  5
113B
330
1138
100
AcDbEntity
  8
cotas
100
AcDbLine
 10
4044.781477025726
 20
752.4860539577893
 30
0.0
 11
3795.332182196982
 21
752.4860539577895
 31
0.0
  0
LINE
  5
113C
330
1138
100
AcDbEntity
  8
cotas
100
AcDbLine
 10
3800.332182196982
 20
777.4790200136595
 30
0.0
 11
3800.332182196982
 21
762.4860539577895
 31
0.0
  0
SOLID
  5
113D
330
1138
100
AcDbEntity
  8
cotas
100
AcDbTrace
 10
3798.665515530315
 20
777.4790200136595
 30
0.0
 11
3801.998848863649
 21
777.4790200136595
 31
0.0
 12
3800.332182196982
 22
787.4790200136596
 32
0.0
 13
3800.332182196982
 23
787.4790200136596
 33
0.0
  0
SOLID
  5
113E
330
1138
100
AcDbEntity
  8
cotas
100
AcDbTrace
 10
3798.665515530315
 20
762.4860539577895
 30
0.0
 11
3801.998848863649
 21
762.4860539577895
 31
0.0
 12
3800.332182196982
 22
752.4860539577895
 32
0.0
 13
3800.332182196982
 23
752.4860539577895
 33
0.0
  0
MTEXT
  5
113F
330
1138
100
AcDbEntity
  8
cotas
100
AcDbMText
 10
3790.12398877858
 20
769.9825369857251
 30
0.0
 40
10.0
 41
0.0
 71
     5
 72
     1
  1
35
  7
SANINDUSA
 11
0.0000000000000001
 21
1.0
 31
0.0
 73
     1
 44
1.0
1001
ACAD
1000
MTEXTBEGIN
1070
    73
1070
     1
1070
    44
1040
1.0
1070
    74
1070
     0
1000
MTEXTEND
  0
POINT
  5
1140
330
1138
100
AcDbEntity
  8
Defpoints
 62
     0
100
AcDbPoint
 10
4130.866406432369
 20
787.4790200136595
 30
0.0
  0
POINT
  5
1141
330
1138
100
AcDbEntity
  8
Defpoints
 62
     0
100
AcDbPoint
 10
4049.781477025726
 20
752.4860539577893
 30
0.0
  0
POINT
  5
1142
330
1138
100
AcDbEntity
  8
Defpoints
 62
     0
100
AcDbPoint
 10
3800.332182196982
 20
752.4860539577895
 30
0.0
  0
ENDBLK
  5
1143
330
1138
100
AcDbEntity
  8
0
100
AcDbBlockEnd
  0
BLOCK
  5
1145
330
1144
100
AcDbEntity
  8
0
100
AcDbBlockBegin
  2
*D19
 70
     1
 10
0.0
 20
0.0
 30
0.0
  3
*D19
  1

  0
LINE
  5
1146
330
1144
100
AcDbEntity
  8
cotas
100
AcDbLine
 10
4125.866406432369
 20
787.4790200136595
 30
0.0
 11
3795.332182196982
 21
787.4790200136596
 31
0.0
  0
LINE
  5
1147
330
1144
100
AcDbEntity
  8
cotas
100
AcDbLine
 10
4130.375631920078
 20
1067.416391625254
 30
0.0
 11
3795.332182196983
 21
1067.416391625254
 31
0.0
  0
LINE
  5
1148
330
1144
100
AcDbEntity
  8
cotas
100
AcDbLine
 10
3800.332182196982
 20
797.4790200136595
 30
0.0
 11
3800.332182196983
 21
1057.416391625254
 31
0.0
  0
SOLID
  5
1149
330
1144
100
AcDbEntity
  8
cotas
100
AcDbTrace
 10
3798.665515530315
 20
797.4790200136595
 30
0.0
 11
3801.998848863649
 21
797.4790200136595
 31
0.0
 12
3800.332182196982
 22
787.4790200136596
 32
0.0
 13
3800.332182196982
 23
787.4790200136596
 33
0.0
  0
SOLID
  5
114A
330
1144
100
AcDbEntity
  8
cotas
100
AcDbTrace
 10
3798.665515530316
 20
1057.416391625254
 30
0.0
 11
3801.998848863649
 21
1057.416391625254
 31
0.0
 12
3800.332182196983
 22
1067.416391625254
 32
0.0
 13
3800.332182196983
 23
1067.416391625254
 33
0.0
  0
MTEXT
  5
114B
330
1144
100
AcDbEntity
  8
cotas
100
AcDbMText
 10
3790.103841028413
 20
961.1362265168191
 30
0.0
 40
10.0
 41
0.0
 71
     5
 72
     1
  1
280
  7
SANINDUSA
 11
0.0000000000000001
 21
1.0
 31
0.0
 73
     1
 44
1.0
1001
ACAD
1000
MTEXTBEGIN
1070
    73
1070
     1
1070
    44
1040
1.0
1070
    74
1070
     0
1000
MTEXTEND
  0
POINT
  5
114C
330
1144
100
AcDbEntity
  8
Defpoints
 62
     0
100
AcDbPoint
 10
4130.866406432369
 20
787.4790200136595
 30
0.0
  0
POINT
  5
114D
330
1144
100
AcDbEntity
  8
Defpoints
 62
     0
100
AcDbPoint
 10
4135.375631920078
 20
1067.416391625254
 30
0.0
  0
POINT
  5
114E
330
1144
100
AcDbEntity
  8
Defpoints
 62
     0
100
AcDbPoint
 10
3800.332182196983
 20
1067.416391625254
 30
0.0
  0
ENDBLK
  5
114F
330
1144
100
AcDbEntity
  8
0
100
AcDbBlockEnd
  0
BLOCK
  5
1151
330
1150
100
AcDbEntity
  8
0
100
AcDbBlockBegin
  2
*D20
 70
     1
 10
0.0
 20
0.0
 30
0.0
  3
*D20
  1

  0
LINE
  5
1152
330
1150
100
AcDbEntity
  8
cotas
100
AcDbLine
 10
4130.375631920078
 20
1067.416391625254
 30
0.0
 11
3795.332182196982
 21
1067.416391625254
 31
0.0
  0
LINE
  5
1153
330
1150
100
AcDbEntity
  8
cotas
100
AcDbLine
 10
3975.376368335465
 20
1087.662882461398
 30
0.0
 11
3795.332182196982
 21
1087.662882461398
 31
0.0
  0
LINE
  5
1154
330
1150
100
AcDbEntity
  8
cotas
100
AcDbLine
 10
3800.332182196982
 20
1057.416391625254
 30
0.0
 11
3800.332182196982
 21
1047.416391625255
 31
0.0
  0
LINE
  5
1155
330
1150
100
AcDbEntity
  8
cotas
100
AcDbLine
 10
3800.332182196982
 20
1097.662882461398
 30
0.0
 11
3800.332182196982
 21
1133.163218257234
 31
0.0
  0
LINE
  5
1156
330
1150
100
AcDbEntity
  8
cotas
100
AcDbLine
 10
3800.332182196982
 20
1067.416391625254
 30
0.0
 11
3800.332182196982
 21
1087.662882461398
 31
0.0
  0
SOLID
  5
1157
330
1150
100
AcDbEntity
  8
cotas
100
AcDbTrace
 10
3798.665515530315
 20
1057.416391625254
 30
0.0
 11
3801.998848863649
 21
1057.416391625254
 31
0.0
 12
3800.332182196982
 22
1067.416391625254
 32
0.0
 13
3800.332182196982
 23
1067.416391625254
 33
0.0
  0
SOLID
  5
1158
330
1150
100
AcDbEntity
  8
cotas
100
AcDbTrace
 10
3798.665515530315
 20
1097.662882461398
 30
0.0
 11
3801.998848863649
 21
1097.662882461398
 31
0.0
 12
3800.332182196982
 22
1087.662882461398
 32
0.0
 13
3800.332182196982
 23
1087.662882461398
 33
0.0
  0
MTEXT
  5
1159
330
1150
100
AcDbEntity
  8
cotas
100
AcDbMText
 10
3790.12398877858
 20
1120.413050359317
 30
0.0
 40
10.0
 41
0.0
 71
     5
 72
     1
  1
20
  7
SANINDUSA
 11
0.0000000000000001
 21
1.0
 31
0.0
 73
     1
 44
1.0
1001
ACAD
1000
MTEXTBEGIN
1070
    73
1070
     1
1070
    44
1040
1.0
1070
    74
1070
     0
1000
MTEXTEND
  0
POINT
  5
115A
330
1150
100
AcDbEntity
  8
Defpoints
 62
     0
100
AcDbPoint
 10
4135.375631920078
 20
1067.416391625254
 30
0.0
  0
POINT
  5
115B
330
1150
100
AcDbEntity
  8
Defpoints
 62
     0
100
AcDbPoint
 10
3980.376368335465
 20
1087.662882461398
 30
0.0
  0
POINT
  5
115C
330
1150
100
AcDbEntity
  8
Defpoints
 62
     0
100
AcDbPoint
 10
3800.332182196982
 20
1087.662882461398
 30
0.0
  0
ENDBLK
  5
115D
330
1150
100
AcDbEntity
  8
0
100
AcDbBlockEnd
  0
BLOCK
  5
115F
330
115E
100
AcDbEntity
  8
0
100
AcDbBlockBegin
  2
*D21
 70
     1
 10
0.0
 20
0.0
 30
0.0
  3
*D21
  1

  0
LINE
  5
1160
330
115E
100
AcDbEntity
  8
cotas
100
AcDbLine
 10
3431.519365733207
 20
2367.968377991349
 30
0.0
 11
3496.509360410944
 21
2367.968377991349
 31
0.0
  0
LINE
  5
1161
330
115E
100
AcDbEntity
  8
cotas
100
AcDbLine
 10
3331.509360410944
 20
2160.968376737481
 30
0.0
 11
3496.509360410944
 21
2160.968376737481
 31
0.0
  0
LINE
  5
1162
330
115E
100
AcDbEntity
  8
cotas
100
AcDbLine
 10
3491.509360410944
 20
2357.968377991348
 30
0.0
 11
3491.509360410944
 21
2170.968376737481
 31
0.0
  0
SOLID
  5
1163
330
115E
100
AcDbEntity
  8
cotas
100
AcDbTrace
 10
3489.842693744278
 20
2357.968377991348
 30
0.0
 11
3493.176027077611
 21
2357.968377991348
 31
0.0
 12
3491.509360410944
 22
2367.968377991349
 32
0.0
 13
3491.509360410944
 23
2367.968377991349
 33
0.0
  0
SOLID
  5
1164
330
115E
100
AcDbEntity
  8
cotas
100
AcDbTrace
 10
3489.842693744278
 20
2170.968376737481
 30
0.0
 11
3493.176027077611
 21
2170.968376737481
 31
0.0
 12
3491.509360410944
 22
2160.968376737481
 32
0.0
 13
3491.509360410944
 23
2160.968376737481
 33
0.0
  0
MTEXT
  5
1165
330
115E
100
AcDbEntity
  8
cotas
100
AcDbMText
 10
3481.301166992543
 20
2264.468377364416
 30
0.0
 40
10.0
 41
0.0
 71
     5
 72
     1
  1
207
  7
SANINDUSA
 11
0.0000000000000001
 21
1.0
 31
0.0
 73
     1
 44
1.0
1001
ACAD
1000
MTEXTBEGIN
1070
    73
1070
     1
1070
    44
1040
1.0
1070
    74
1070
     0
1000
MTEXTEND
  0
POINT
  5
1166
330
115E
100
AcDbEntity
  8
Defpoints
 62
     0
100
AcDbPoint
 10
3426.519365733208
 20
2367.968377991349
 30
0.0
  0
POINT
  5
1167
330
115E
100
AcDbEntity
  8
Defpoints
 62
     0
100
AcDbPoint
 10
3326.509360410945
 20
2160.968376737481
 30
0.0
  0
POINT
  5
1168
330
115E
100
AcDbEntity
  8
Defpoints
 62
     0
100
AcDbPoint
 10
3491.509360410944
 20
2160.968376737481
 30
0.0
  0
ENDBLK
  5
1169
330
115E
100
AcDbEntity
  8
0
100
AcDbBlockEnd
  0
BLOCK
  5
116B
330
116A
100
AcDbEntity
  8
0
100
AcDbBlockBegin
  2
*D22
 70
     1
 10
0.0
 20
0.0
 30
0.0
  3
*D22
  1

  0
LINE
  5
116C
330
116A
100
AcDbEntity
  8
cotas
100
AcDbLine
 10
3331.509360410944
 20
2160.968376737481
 30
0.0
 11
3496.509360410944
 21
2160.968376737481
 31
0.0
  0
LINE
  5
116D
330
116A
100
AcDbEntity
  8
cotas
100
AcDbLine
 10
3446.708044564512
 20
2067.968376737481
 30
0.0
 11
3496.509360410944
 21
2067.968376737481
 31
0.0
  0
LINE
  5
116E
330
116A
100
AcDbEntity
  8
cotas
100
AcDbLine
 10
3491.509360410944
 20
2150.968376737481
 30
0.0
 11
3491.509360410944
 21
2077.968376737481
 31
0.0
  0
SOLID
  5
116F
330
116A
100
AcDbEntity
  8
cotas
100
AcDbTrace
 10
3489.842693744278
 20
2150.968376737481
 30
0.0
 11
3493.176027077611
 21
2150.968376737481
 31
0.0
 12
3491.509360410944
 22
2160.968376737481
 32
0.0
 13
3491.509360410944
 23
2160.968376737481
 33
0.0
  0
SOLID
  5
1170
330
116A
100
AcDbEntity
  8
cotas
100
AcDbTrace
 10
3489.842693744278
 20
2077.968376737481
 30
0.0
 11
3493.176027077611
 21
2077.968376737481
 31
0.0
 12
3491.509360410944
 22
2067.968376737481
 32
0.0
 13
3491.509360410944
 23
2067.968376737481
 33
0.0
  0
MTEXT
  5
1171
330
116A
100
AcDbEntity
  8
cotas
100
AcDbMText
 10
3481.301166992543
 20
2114.468376737482
 30
0.0
 40
10.0
 41
0.0
 71
     5
 72
     1
  1
93
  7
SANINDUSA
 11
0.0000000000000001
 21
1.0
 31
0.0
 73
     1
 44
1.0
1001
ACAD
1000
MTEXTBEGIN
1070
    73
1070
     1
1070
    44
1040
1.0
1070
    74
1070
     0
1000
MTEXTEND
  0
POINT
  5
1172
330
116A
100
AcDbEntity
  8
Defpoints
 62
     0
100
AcDbPoint
 10
3326.509360410945
 20
2160.968376737481
 30
0.0
  0
POINT
  5
1173
330
116A
100
AcDbEntity
  8
Defpoints
 62
     0
100
AcDbPoint
 10
3441.708044564512
 20
2067.968376737481
 30
0.0
  0
POINT
  5
1174
330
116A
100
AcDbEntity
  8
Defpoints
 62
     0
100
AcDbPoint
 10
3491.509360410944
 20
2067.968376737481
 30
0.0
  0
ENDBLK
  5
1175
330
116A
100
AcDbEntity
  8
0
100
AcDbBlockEnd
  0
BLOCK
  5
1177
330
1176
100
AcDbEntity
  8
0
100
AcDbBlockBegin
  2
*D23
 70
     1
 10
0.0
 20
0.0
 30
0.0
  3
*D23
  1

  0
LINE
  5
1178
330
1176
100
AcDbEntity
  8
cotas
100
AcDbLine
 10
3256.509360410941
 20
2155.968376737481
 30
0.0
 11
3256.509360410941
 21
2126.509488942151
 31
0.0
  0
LINE
  5
1179
330
1176
100
AcDbEntity
  8
cotas
100
AcDbLine
 10
3326.509360410945
 20
2155.968376737481
 30
0.0
 11
3326.509360410945
 21
2126.509488942151
 31
0.0
  0
LINE
  5
117A
330
1176
100
AcDbEntity
  8
cotas
100
AcDbLine
 10
3266.509360410941
 20
2131.509488942151
 30
0.0
 11
3316.509360410945
 21
2131.509488942151
 31
0.0
  0
SOLID
  5
117B
330
1176
100
AcDbEntity
  8
cotas
100
AcDbTrace
 10
3266.509360410941
 20
2133.176155608817
 30
0.0
 11
3266.509360410941
 21
2129.842822275485
 31
0.0
 12
3256.509360410941
 22
2131.509488942151
 32
0.0
 13
3256.509360410941
 23
2131.509488942151
 33
0.0
  0
SOLID
  5
117C
330
1176
100
AcDbEntity
  8
cotas
100
AcDbTrace
 10
3316.509360410945
 20
2133.176155608817
 30
0.0
 11
3316.509360410945
 21
2129.842822275485
 31
0.0
 12
3326.509360410945
 22
2131.509488942151
 32
0.0
 13
3326.509360410945
 23
2131.509488942151
 33
0.0
  0
MTEXT
  5
117D
102
{ACAD_XDICTIONARY
360
1D1D
102
}
330
1176
100
AcDbEntity
  8
cotas
100
AcDbMText
 10
3291.509360410942
 20
2142.107205530465
 30
0.0
 40
10.0
 41
0.0
 71
     5
 72
     1
  1
\U+00F870
  7
SANINDUSA
 73
     1
 44
1.0
1001
ACAD
1000
MTEXTBEGIN
1070
    73
1070
     1
1070
    44
1040
1.0
1070
    74
1070
     0
1000
MTEXTEND
  0
POINT
  5
117E
330
1176
100
AcDbEntity
  8
Defpoints
 62
     0
100
AcDbPoint
 10
3256.509360410941
 20
2160.968376737481
 30
0.0
  0
POINT
  5
117F
330
1176
100
AcDbEntity
  8
Defpoints
 62
     0
100
AcDbPoint
 10
3326.509360410945
 20
2160.968376737481
 30
0.0
  0
POINT
  5
1180
330
1176
100
AcDbEntity
  8
Defpoints
 62
     0
100
AcDbPoint
 10
3326.509360410945
 20
2131.509488942151
 30
0.0
  0
ENDBLK
  5
1181
330
1176
100
AcDbEntity
  8
0
100
AcDbBlockEnd
  0
BLOCK
  5
1183
330
1182
100
AcDbEntity
  8
0
100
AcDbBlockBegin
  2
*D24
 70
     1
 10
0.0
 20
0.0
 30
0.0
  3
*D24
  1

  0
LINE
  5
1184
330
1182
100
AcDbEntity
  8
cotas
100
AcDbLine
 10
3924.305830238261
 20
1700.982020188404
 30
0.0
 11
3895.477808332265
 21
1735.277116710245
 31
0.0
  0
MTEXT
  5
1185
330
1182
100
AcDbEntity
  8
cotas
100
AcDbMText
 10
3920.920729714577
 20
1720.868510126082
 30
0.0
 40
10.0
 41
0.0
 71
     5
 72
     1
  1
R40
  7
SANINDUSA
 11
0.6434556231153735
 21
-0.7654834165945115
 31
0.0
 73
     1
 44
1.0
1001
ACAD
1000
MTEXTBEGIN
1070
    73
1070
     1
1070
    44
1040
1.0
1070
    74
1070
     0
1000
MTEXTEND
  0
SOLID
  5
1186
330
1182
100
AcDbEntity
  8
cotas
100
AcDbTrace
 10
3896.753614026589
 20
1736.349542748771
 30
0.0
 11
3894.202002637941
 21
1734.204690671719
 31
0.0
 12
3889.043252101112
 22
1742.93195087619
 32
0.0
 13
3889.043252101112
 23
1742.93195087619
 33
0.0
  0
POINT
  5
1187
330
1182
100
AcDbEntity
  8
Defpoints
 62
     0
100
AcDbPoint
 10
3889.043252101112
 20
1742.93195087619
 30
0.0
  0
POINT
  5
1188
330
1182
100
AcDbEntity
  8
Defpoints
 62
     0
100
AcDbPoint
 10
3914.781477025727
 20
1712.312614212409
 30
0.0
  0
ENDBLK
  5
1189
330
1182
100
AcDbEntity
  8
0
100
AcDbBlockEnd
  0
BLOCK
  5
118B
330
118A
100
AcDbEntity
  8
0
100
AcDbBlockBegin
  2
*D25
 70
     1
 10
0.0
 20
0.0
 30
0.0
  3
*D25
  1

  0
LINE
  5
118C
330
118A
100
AcDbEntity
  8
cotas
100
AcDbLine
 10
4375.942225657145
 20
1700.439817562208
 30
0.0
 11
4402.696602190628
 21
1736.376036461245
 31
0.0
  0
MTEXT
  5
118D
330
118A
100
AcDbEntity
  8
cotas
100
AcDbMText
 10
4378.148117574574
 20
1720.491386788716
 30
0.0
 40
10.0
 41
0.0
 71
     5
 72
     1
  1
R40
  7
SANINDUSA
 11
0.5971708388300831
 21
0.8021140749612706
 31
0.0
 73
     1
 44
1.0
1001
ACAD
1000
MTEXTBEGIN
1070
    73
1070
     1
1070
    44
1040
1.0
1070
    74
1070
     0
1000
MTEXTEND
  0
SOLID
  5
118E
330
118A
100
AcDbEntity
  8
cotas
100
AcDbTrace
 10
4401.359745399026
 20
1737.371321192629
 30
0.0
 11
4404.03345898223
 21
1735.380751729862
 31
0.0
 12
4408.668310578929
 22
1744.397177210858
 32
0.0
 13
4408.668310578929
 23
1744.397177210858
 33
0.0
  0
POINT
  5
118F
330
118A
100
AcDbEntity
  8
Defpoints
 62
     0
100
AcDbPoint
 10
4408.668310578929
 20
1744.397177210858
 30
0.0
  0
POINT
  5
1190
330
118A
100
AcDbEntity
  8
Defpoints
 62
     0
100
AcDbPoint
 10
4384.781477025726
 20
1712.312614212409
 30
0.0
  0
ENDBLK
  5
1191
330
118A
100
AcDbEntity
  8
0
100
AcDbBlockEnd
  0
BLOCK
  5
1193
330
1192
100
AcDbEntity
  8
0
100
AcDbBlockBegin
  2
*D26
 70
     1
 10
0.0
 20
0.0
 30
0.0
  3
*D26
  1

  0
LINE
  5
1194
330
1192
100
AcDbEntity
  8
cotas
100
AcDbLine
 10
4375.871931299641
 20
1504.132752113838
 30
0.0
 11
4402.839072651141
 21
1468.355919110016
 31
0.0
  0
MTEXT
  5
1195
330
1192
100
AcDbEntity
  8
cotas
100
AcDbMText
 10
4394.495040427364
 20
1496.379611201036
 30
0.0
 40
10.0
 41
0.0
 71
     5
 72
     1
  1
R40
  7
SANINDUSA
 11
0.6019198541804794
 21
-0.7985565034130964
 31
0.0
 73
     1
 44
1.0
1001
ACAD
1000
MTEXTBEGIN
1070
    73
1070
     1
1070
    44
1040
1.0
1070
    74
1070
     0
1000
MTEXTEND
  0
SOLID
  5
1196
330
1192
100
AcDbEntity
  8
cotas
100
AcDbTrace
 10
4404.170000156829
 20
1469.359118866983
 30
0.0
 11
4401.508145145452
 21
1467.352719353048
 31
0.0
 12
4408.858271192945
 22
1460.370354075885
 32
0.0
 13
4408.858271192945
 23
1460.370354075885
 33
0.0
  0
POINT
  5
1197
330
1192
100
AcDbEntity
  8
Defpoints
 62
     0
100
AcDbPoint
 10
4408.858271192945
 20
1460.370354075885
 30
0.0
  0
POINT
  5
1198
330
1192
100
AcDbEntity
  8
Defpoints
 62
     0
100
AcDbPoint
 10
4384.781477025726
 20
1492.312614212409
 30
0.0
  0
ENDBLK
  5
1199
330
1192
100
AcDbEntity
  8
0
100
AcDbBlockEnd
  0
BLOCK
  5
119B
330
119A
100
AcDbEntity
  8
0
100
AcDbBlockBegin
  2
*D27
 70
     1
 10
0.0
 20
0.0
 30
0.0
  3
*D27
  1

  0
LINE
  5
119C
330
119A
100
AcDbEntity
  8
cotas
100
AcDbLine
 10
3923.81368325125
 20
1504.039289604595
 30
0.0
 11
3896.475276839974
 21
1468.545346074079
 31
0.0
  0
MTEXT
  5
119D
330
119A
100
AcDbEntity
  8
cotas
100
AcDbMText
 10
3905.11081138703
 20
1496.480587888867
 30
0.0
 40
10.0
 41
0.0
 71
     5
 72
     1
  1
R40
  7
SANINDUSA
 11
0.6102066728583969
 21
0.7922422712775968
 31
0.0
 73
     1
 44
1.0
1001
ACAD
1000
MTEXTBEGIN
1070
    73
1070
     1
1070
    44
1040
1.0
1070
    74
1070
     0
1000
MTEXTEND
  0
SOLID
  5
119E
330
119A
100
AcDbEntity
  8
cotas
100
AcDbTrace
 10
3895.154873054512
 20
1469.56235719551
 30
0.0
 11
3897.795680625436
 21
1467.528334952649
 31
0.0
 12
3890.37321011139
 22
1460.622923361303
 32
0.0
 13
3890.37321011139
 23
1460.622923361303
 33
0.0
  0
POINT
  5
119F
330
119A
100
AcDbEntity
  8
Defpoints
 62
     0
100
AcDbPoint
 10
3890.37321011139
 20
1460.622923361303
 30
0.0
  0
POINT
  5
11A0
330
119A
100
AcDbEntity
  8
Defpoints
 62
     0
100
AcDbPoint
 10
3914.781477025727
 20
1492.31261421241
 30
0.0
  0
ENDBLK
  5
11A1
330
119A
100
AcDbEntity
  8
0
100
AcDbBlockEnd
  0
BLOCK
  5
11A3
330
11A2
100
AcDbEntity
  8
0
100
AcDbBlockBegin
  2
*D28
 70
     1
 10
0.0
 20
0.0
 30
0.0
  3
*D28
  1

  0
LINE
  5
11A4
330
11A2
100
AcDbEntity
  8
cotas
100
AcDbLine
 10
3179.603550059601
 20
2402.945610489549
 30
0.0
 11
3157.309400275831
 21
2374.691513274877
 31
0.0
  0
MTEXT
  5
11A5
330
11A2
100
AcDbEntity
  8
cotas
100
AcDbMText
 10
3163.621562918144
 20
2399.002686481206
 30
0.0
 40
10.0
 41
0.0
 71
     5
 72
     1
  1
R5
  7
SANINDUSA
 11
0.6194437213665557
 21
0.78504106647968
 31
0.0
 73
     1
 44
1.0
1001
ACAD
1000
MTEXTBEGIN
1070
    73
1070
     1
1070
    44
1040
1.0
1070
    74
1070
     0
1000
MTEXTEND
  0
LINE
  5
11A6
330
11A2
100
AcDbEntity
  8
cotas
100
AcDbLine
 10
3148.007173599136
 20
2362.902500489667
 30
0.0
 11
3151.114963062166
 21
2366.84110261008
 31
0.0
  0
SOLID
  5
11A7
330
11A2
100
AcDbEntity
  8
cotas
100
AcDbTrace
 10
3156.000998498365
 20
2375.723919477154
 30
0.0
 11
3158.617802053298
 21
2373.659107072599
 31
0.0
 12
3151.114963062166
 22
2366.84110261008
 32
0.0
 13
3151.114963062166
 23
2366.84110261008
 33
0.0
  0
POINT
  5
11A8
330
11A2
100
AcDbEntity
  8
Defpoints
 62
     0
100
AcDbPoint
 10
3151.114963062166
 20
2366.84110261008
 30
0.0
  0
POINT
  5
11A9
330
11A2
100
AcDbEntity
  8
Defpoints
 62
     0
100
AcDbPoint
 10
3148.007173599136
 20
2362.902500489667
 30
0.0
  0
ENDBLK
  5
11AA
330
11A2
100
AcDbEntity
  8
0
100
AcDbBlockEnd
  0
BLOCK
  5
11AC
330
11AB
100
AcDbEntity
  8
0
100
AcDbBlockBegin
  2
*D29
 70
     1
 10
0.0
 20
0.0
 30
0.0
  3
*D29
  1

  0
LINE
  5
11AD
330
11AB
100
AcDbEntity
  8
cotas
100
AcDbLine
 10
3091.546194511936
 20
2381.740197596961
 30
0.0
 11
3123.282461361166
 21
2364.765731759363
 31
0.0
  0
MTEXT
  5
11AE
330
11AB
100
AcDbEntity
  8
cotas
100
AcDbMText
 10
3107.770818547376
 20
2384.520869752011
 30
0.0
 40
10.0
 41
0.0
 71
     5
 72
     1
  1
R5
  7
SANINDUSA
 11
0.8817932699851333
 21
-0.471636119279393
 31
0.0
 73
     1
 44
1.0
1001
ACAD
1000
MTEXTBEGIN
1070
    73
1070
     1
1070
    44
1040
1.0
1070
    74
1070
     0
1000
MTEXTEND
  0
LINE
  5
11AF
330
11AB
100
AcDbEntity
  8
cotas
100
AcDbLine
 10
3136.509360410943
 20
2357.691189970173
 30
0.0
 11
3132.100394061017
 21
2360.049370566569
 31
0.0
  0
SOLID
  5
11B0
330
11AB
100
AcDbEntity
  8
cotas
100
AcDbTrace
 10
3124.068521559965
 20
2366.235387209339
 30
0.0
 11
3122.496401162367
 21
2363.296076309389
 31
0.0
 12
3132.100394061017
 22
2360.049370566569
 32
0.0
 13
3132.100394061017
 23
2360.049370566569
 33
0.0
  0
POINT
  5
11B1
330
11AB
100
AcDbEntity
  8
Defpoints
 62
     0
100
AcDbPoint
 10
3132.100394061017
 20
2360.049370566569
 30
0.0
  0
POINT
  5
11B2
330
11AB
100
AcDbEntity
  8
Defpoints
 62
     0
100
AcDbPoint
 10
3136.509360410943
 20
2357.691189970173
 30
0.0
  0
ENDBLK
  5
11B3
330
11AB
100
AcDbEntity
  8
0
100
AcDbBlockEnd
  0
BLOCK
  5
11B5
330
11B4
100
AcDbEntity
  8
0
100
AcDbBlockBegin
  2
*D30
 70
     1
 10
0.0
 20
0.0
 30
0.0
  3
*D30
  1

  0
LINE
  5
11B6
330
11B4
100
AcDbEntity
  8
cotas
100
AcDbLine
 10
3494.119758004181
 20
2395.423103246642
 30
0.0
 11
3462.168145483321
 21
2364.017642737814
 31
0.0
  0
MTEXT
  5
11B7
330
11B4
100
AcDbEntity
  8
cotas
100
AcDbMText
 10
3474.556390400417
 20
2390.503140279632
 30
0.0
 40
10.0
 41
0.0
 71
     5
 72
     1
  1
R40
  7
SANINDUSA
 11
0.7131757014474854
 21
0.7009853200066943
 31
0.0
 73
     1
 44
1.0
1001
ACAD
1000
MTEXTBEGIN
1070
    73
1070
     1
1070
    44
1040
1.0
1070
    74
1070
     0
1000
MTEXTEND
  0
LINE
  5
11B8
330
11B4
100
AcDbEntity
  8
cotas
100
AcDbLine
 10
3426.509360410945
 20
2328.968376737477
 30
0.0
 11
3455.036388468846
 21
2357.007789537747
 31
0.0
  0
SOLID
  5
11B9
330
11B4
100
AcDbEntity
  8
cotas
100
AcDbTrace
 10
3460.999836616642
 20
2365.206268906893
 30
0.0
 11
3463.336454349999
 21
2362.829016568735
 31
0.0
 12
3455.036388468846
 22
2357.007789537747
 32
0.0
 13
3455.036388468846
 23
2357.007789537747
 33
0.0
  0
POINT
  5
11BA
330
11B4
100
AcDbEntity
  8
Defpoints
 62
     0
100
AcDbPoint
 10
3455.036388468846
 20
2357.007789537747
 30
0.0
  0
POINT
  5
11BB
330
11B4
100
AcDbEntity
  8
Defpoints
 62
     0
100
AcDbPoint
 10
3426.509360410945
 20
2328.968376737477
 30
0.0
  0
ENDBLK
  5
11BC
330
11B4
100
AcDbEntity
  8
0
100
AcDbBlockEnd
  0
BLOCK
  5
11BE
330
11BD
100
AcDbEntity
  8
0
100
AcDbBlockBegin
  2
*D31
 70
     1
 10
0.0
 20
0.0
 30
0.0
  3
*D31
  1

  0
LINE
  5
11BF
330
11BD
100
AcDbEntity
  8
cotas
100
AcDbLine
 10
4285.614264960185
 20
982.8461801996743
 30
0.0
 11
4316.551842515432
 21
948.0401400445142
 31
0.0
  0
LINE
  5
11C0
330
11BD
100
AcDbEntity
  8
cotas
100
AcDbLine
 10
4353.091111536009
 20
906.9319678710664
 30
0.0
 11
4359.734614994295
 21
899.4577547486214
 31
0.0
  0
MTEXT
  5
11C1
102
{ACAD_XDICTIONARY
360
1D1F
102
}
330
11BD
100
AcDbEntity
  8
cotas
100
AcDbMText
 10
4305.908144115937
 20
976.4216408356334
 30
0.0
 40
10.0
 41
0.0
 71
     5
 72
     1
  1
\U+220535
  7
SANINDUSA
 11
0.6643503458286942
 21
-0.7474213122445029
 31
0.0
 73
     1
 44
1.0
1001
ACAD
1000
MTEXTBEGIN
1070
    73
1070
     1
1070
    44
1040
1.0
1070
    74
1070
     0
1000
MTEXTEND
  0
LINE
  5
11C2
330
11BD
100
AcDbEntity
  8
cotas
100
AcDbLine
 10
4346.447608077722
 20
914.4061809935115
 30
0.0
 11
4323.195345973718
 21
940.5659269220691
 31
0.0
  0
SOLID
  5
11C3
330
11BD
100
AcDbEntity
  8
cotas
100
AcDbTrace
 10
4354.336813723083
 20
908.0392184474474
 30
0.0
 11
4351.845409348935
 21
905.8247172946856
 31
0.0
 12
4346.447608077722
 22
914.4061809935115
 32
0.0
 13
4346.447608077722
 23
914.4061809935115
 33
0.0
  0
SOLID
  5
11C4
330
11BD
100
AcDbEntity
  8
cotas
100
AcDbTrace
 10
4317.797544702505
 20
949.147390620895
 30
0.0
 11
4315.306140328357
 21
946.9328894681332
 31
0.0
 12
4323.195345973718
 22
940.5659269220691
 32
0.0
 13
4323.195345973718
 23
940.5659269220691
 33
0.0
  0
POINT
  5
11C5
330
11BD
100
AcDbEntity
  8
Defpoints
 62
     0
100
AcDbPoint
 10
4323.195345973718
 20
940.5659269220691
 30
0.0
  0
POINT
  5
11C6
330
11BD
100
AcDbEntity
  8
Defpoints
 62
     0
100
AcDbPoint
 10
4346.447608077722
 20
914.4061809935115
 30
0.0
  0
ENDBLK
  5
11C7
330
11BD
100
AcDbEntity
  8
0
100
AcDbBlockEnd
  0
BLOCK
  5
11C9
330
11C8
100
AcDbEntity
  8
0
100
AcDbBlockBegin
  2
*D32
 70
     1
 10
0.0
 20
0.0
 30
0.0
  3
*D32
  1

  0
ARC
  5
11CA
330
11C8
100
AcDbEntity
  8
cotas
100
AcDbCircle
 10
3416.709360410943
 20
2068.968376737481
 30
0.0
 40
46.80599785748777
100
AcDbArc
 50
106.2645207671943
 51
167.735479232805
  0
SOLID
  5
11CB
330
11C8
100
AcDbEntity
  8
cotas
100
AcDbTrace
 10
3403.307094508802
 20
2115.541821115887
 30
0.0
 11
3403.89349791778
 21
2112.260473503541
 31
0.0
 12
3413.444339050329
 22
2115.660357536649
 32
0.0
 13
3413.444339050329
 23
2115.660357536649
 33
0.0
  0
SOLID
  5
11CC
330
11C8
100
AcDbEntity
  8
cotas
100
AcDbTrace
 10
3372.628731641238
 20
2078.733116422343
 30
0.0
 11
3369.314471792755
 21
2079.089196143524
 31
0.0
 12
3369.903362553455
 22
2068.968376737481
 32
0.0
 13
3369.903362553455
 23
2068.968376737481
 33
0.0
  0
MTEXT
  5
11CD
102
{ACAD_XDICTIONARY
360
1D21
102
}
330
11C8
100
AcDbEntity
  8
cotas
100
AcDbMText
 10
3374.171918071616
 20
2108.635183444614
 30
0.0
 40
10.0
 41
0.0
 71
     5
 72
     1
  1
86,0\U+00B0
  7
SANINDUSA
 11
0.6819983600625008
 21
0.7313537016191685
 31
0.0
 73
     1
 44
1.0
1001
ACAD
1000
MTEXTBEGIN
1070
    73
1070
     1
1070
    44
1040
1.0
1070
    74
1070
     0
1000
MTEXTEND
  0
POINT
  5
11CE
330
11C8
100
AcDbEntity
  8
Defpoints
 62
     0
100
AcDbPoint
 10
3391.445792271286
 20
2108.37083300975
 30
0.0
  0
POINT
  5
11CF
330
11C8
100
AcDbEntity
  8
Defpoints
 62
     0
100
AcDbPoint
 10
3291.509360594942
 20
2068.968376737481
 30
0.0
  0
POINT
  5
11D0
330
11C8
100
AcDbEntity
  8
Defpoints
 62
     0
100
AcDbPoint
 10
3416.709360410943
 20
2068.968376737481
 30
0.0
  0
POINT
  5
11D1
330
11C8
100
AcDbEntity
  8
Defpoints
 62
     0
100
AcDbPoint
 10
3406.198369651154
 20
2219.28254762062
 30
0.0
  0
POINT
  5
11D2
330
11C8
100
AcDbEntity
  8
Defpoints
 62
     0
100
AcDbPoint
 10
3416.709360410943
 20
2068.968376737481
 30
0.0
  0
ENDBLK
  5
11D3
330
11C8
100
AcDbEntity
  8
0
100
AcDbBlockEnd
  0
BLOCK
  5
11D5
330
11D4
100
AcDbEntity
  8
0
100
AcDbBlockBegin
  2
*D33
 70
     1
 10
0.0
 20
0.0
 30
0.0
  3
*D33
  1

  0
ARC
  5
11D6
330
11D4
100
AcDbEntity
  8
cotas
100
AcDbCircle
 10
3161.509360410945
 20
2068.968376737481
 30
0.0
 40
53.35957525101253
100
AcDbArc
 50
10.75345129953714
 51
77.24654870046307
  0
SOLID
  5
11D7
330
11D4
100
AcDbEntity
  8
cotas
100
AcDbTrace
 10
3215.591230236446
 20
2079.080551000489
 30
0.0
 11
3212.272563201175
 21
2078.768204686106
 31
0.0
 12
3214.868935661957
 22
2068.968376737482
 32
0.0
 13
3214.868935661957
 23
2068.968376737482
 33
0.0
  0
SOLID
  5
11D8
330
11D4
100
AcDbEntity
  8
cotas
100
AcDbTrace
 10
3173.074828797553
 20
2119.358646892968
 30
0.0
 11
3173.502804648254
 21
2122.664391556781
 31
0.0
 12
3163.371582731465
 22
2122.295446776978
 32
0.0
 13
3163.371582731465
 23
2122.295446776978
 33
0.0
  0
MTEXT
  5
11D9
102
{ACAD_XDICTIONARY
360
1D23
102
}
330
11D4
100
AcDbEntity
  8
cotas
100
AcDbMText
 10
3208.062291912809
 20
2113.924020123193
 30
0.0
 40
10.0
 41
0.0
 71
     5
 72
     1
  1
88,0\U+00B0
  7
SANINDUSA
 11
0.6946583704589962
 21
-0.7193398003386522
 31
0.0
 73
     1
 44
1.0
1001
ACAD
1000
MTEXTBEGIN
1070
    73
1070
     1
1070
    44
1040
1.0
1070
    74
1070
     0
1000
MTEXTEND
  0
POINT
  5
11DA
330
11D4
100
AcDbEntity
  8
Defpoints
 62
     0
100
AcDbPoint
 10
3208.027406436257
 20
2095.108684022504
 30
0.0
  0
POINT
  5
11DB
330
11D4
100
AcDbEntity
  8
Defpoints
 62
     0
100
AcDbPoint
 10
3166.170339004572
 20
2202.441340290825
 30
0.0
  0
POINT
  5
11DC
330
11D4
100
AcDbEntity
  8
Defpoints
 62
     0
100
AcDbPoint
 10
3164.47637510595
 20
2068.968376737481
 30
0.0
  0
POINT
  5
11DD
330
11D4
100
AcDbEntity
  8
Defpoints
 62
     0
100
AcDbPoint
 10
3291.509360594943
 20
2068.968376737482
 30
0.0
  0
POINT
  5
11DE
330
11D4
100
AcDbEntity
  8
Defpoints
 62
     0
100
AcDbPoint
 10
3161.509360410945
 20
2068.968376737482
 30
0.0
  0
ENDBLK
  5
11DF
330
11D4
100
AcDbEntity
  8
0
100
AcDbBlockEnd
  0
BLOCK
  5
11E1
330
11E0
100
AcDbEntity
  8
0
100
AcDbBlockBegin
  2
*D34
 70
     1
 10
0.0
 20
0.0
 30
0.0
  3
*D34
  1

  0
LINE
  5
11E2
330
11E0
100
AcDbEntity
  8
cotas
100
AcDbLine
 10
3468.509363987222
 20
1752.312614212411
 30
0.0
 11
3496.509360410944
 21
1752.312614212411
 31
0.0
  0
LINE
  5
11E3
330
11E0
100
AcDbEntity
  8
cotas
100
AcDbLine
 10
3471.509363987222
 20
1452.336790005343
 30
0.0
 11
3496.509360410944
 21
1452.336790005343
 31
0.0
  0
LINE
  5
11E4
330
11E0
100
AcDbEntity
  8
cotas
100
AcDbLine
 10
3491.509360410944
 20
1742.312614212411
 30
0.0
 11
3491.509360410944
 21
1462.336790005343
 31
0.0
  0
SOLID
  5
11E5
330
11E0
100
AcDbEntity
  8
cotas
100
AcDbTrace
 10
3489.842693744277
 20
1742.312614212411
 30
0.0
 11
3493.17602707761
 21
1742.312614212411
 31
0.0
 12
3491.509360410944
 22
1752.312614212411
 32
0.0
 13
3491.509360410944
 23
1752.312614212411
 33
0.0
  0
SOLID
  5
11E6
330
11E0
100
AcDbEntity
  8
cotas
100
AcDbTrace
 10
3489.842693744277
 20
1462.336790005343
 30
0.0
 11
3493.17602707761
 21
1462.336790005343
 31
0.0
 12
3491.509360410944
 22
1452.336790005343
 32
0.0
 13
3491.509360410944
 23
1452.336790005343
 33
0.0
  0
MTEXT
  5
11E7
330
11E0
100
AcDbEntity
  8
cotas
100
AcDbMText
 10
3481.301166992542
 20
1602.324702108877
 30
0.0
 40
10.0
 41
0.0
 71
     5
 72
     1
  1
300
  7
SANINDUSA
 11
0.0000000000000001
 21
1.0
 31
0.0
 73
     1
 44
1.0
1001
ACAD
1000
MTEXTBEGIN
1070
    73
1070
     1
1070
    44
1040
1.0
1070
    74
1070
     0
1000
MTEXTEND
  0
POINT
  5
11E8
330
11E0
100
AcDbEntity
  8
Defpoints
 62
     0
100
AcDbPoint
 10
3463.509363987223
 20
1752.312614212411
 30
0.0
  0
POINT
  5
11E9
330
11E0
100
AcDbEntity
  8
Defpoints
 62
     0
100
AcDbPoint
 10
3466.509363987222
 20
1452.336790005343
 30
0.0
  0
POINT
  5
11EA
330
11E0
100
AcDbEntity
  8
Defpoints
 62
     0
100
AcDbPoint
 10
3491.509360410944
 20
1452.336790005343
 30
0.0
  0
ENDBLK
  5
11EB
330
11E0
100
AcDbEntity
  8
0
100
AcDbBlockEnd
  0
BLOCK
  5
11ED
330
11EC
100
AcDbEntity
  8
0
100
AcDbBlockBegin
  2
*D35
 70
     1
 10
0.0
 20
0.0
 30
0.0
  3
*D35
  1

  0
LINE
  5
11EE
330
11EC
100
AcDbEntity
  8
cotas
100
AcDbLine
 10
3131.509363987222
 20
1717.312614212411
 30
0.0
 11
3131.509363987222
 21
1782.312614212411
 31
0.0
  0
LINE
  5
11EF
330
11EC
100
AcDbEntity
  8
cotas
100
AcDbLine
 10
3129.509363987225
 20
1607.312614212412
 30
0.0
 11
3129.509363987225
 21
1782.312614212411
 31
0.0
  0
LINE
  5
11F0
330
11EC
100
AcDbEntity
  8
cotas
100
AcDbLine
 10
3141.509363987222
 20
1777.312614212411
 30
0.0
 11
3151.509363987222
 21
1777.312614212411
 31
0.0
  0
LINE
  5
11F1
330
11EC
100
AcDbEntity
  8
cotas
100
AcDbLine
 10
3119.509363987225
 20
1777.312614212411
 30
0.0
 11
3092.739719930811
 21
1777.312614212411
 31
0.0
  0
LINE
  5
11F2
330
11EC
100
AcDbEntity
  8
cotas
100
AcDbLine
 10
3131.509363987222
 20
1777.312614212411
 30
0.0
 11
3129.509363987225
 21
1777.312614212411
 31
0.0
  0
SOLID
  5
11F3
330
11EC
100
AcDbEntity
  8
cotas
100
AcDbTrace
 10
3141.509363987222
 20
1778.979280879078
 30
0.0
 11
3141.509363987222
 21
1775.645947545745
 31
0.0
 12
3131.509363987222
 22
1777.312614212411
 32
0.0
 13
3131.509363987222
 23
1777.312614212411
 33
0.0
  0
SOLID
  5
11F4
330
11EC
100
AcDbEntity
  8
cotas
100
AcDbTrace
 10
3119.509363987225
 20
1778.979280879078
 30
0.0
 11
3119.509363987225
 21
1775.645947545745
 31
0.0
 12
3129.509363987225
 22
1777.312614212411
 32
0.0
 13
3129.509363987225
 23
1777.312614212411
 33
0.0
  0
MTEXT
  5
11F5
330
11EC
100
AcDbEntity
  8
cotas
100
AcDbMText
 10
3101.124541959018
 20
1787.416710921612
 30
0.0
 40
10.0
 41
0.0
 71
     5
 72
     1
  1
2
  7
SANINDUSA
 73
     1
 44
1.0
1001
ACAD
1000
MTEXTBEGIN
1070
    73
1070
     1
1070
    44
1040
1.0
1070
    74
1070
     0
1000
MTEXTEND
  0
POINT
  5
11F6
330
11EC
100
AcDbEntity
  8
Defpoints
 62
     0
100
AcDbPoint
 10
3131.509363987222
 20
1712.312614212411
 30
0.0
  0
POINT
  5
11F7
330
11EC
100
AcDbEntity
  8
Defpoints
 62
     0
100
AcDbPoint
 10
3129.509363987225
 20
1602.312614212412
 30
0.0
  0
POINT
  5
11F8
330
11EC
100
AcDbEntity
  8
Defpoints
 62
     0
100
AcDbPoint
 10
3129.509363987225
 20
1777.312614212411
 30
0.0
  0
ENDBLK
  5
11F9
330
11EC
100
AcDbEntity
  8
0
100
AcDbBlockEnd
  0
BLOCK
  5
11FB
330
11FA
100
AcDbEntity
  8
0
100
AcDbBlockBegin
  2
*D36
 70
     1
 10
0.0
 20
0.0
 30
0.0
  3
*D36
  1

  0
LINE
  5
11FC
330
11FA
100
AcDbEntity
  8
cotas
100
AcDbLine
 10
3195.083080149712
 20
1510.195451410187
 30
0.0
 11
3147.608297984378
 21
1474.181451979184
 31
0.0
  0
MTEXT
  5
11FD
330
11FA
100
AcDbEntity
  8
cotas
100
AcDbMText
 10
3175.052195209761
 20
1507.809023929781
 30
0.0
 40
10.0
 41
0.0
 71
     5
 72
     1
  1
R40
  7
SANINDUSA
 11
0.7967022000948484
 21
0.604372074440926
 31
0.0
 73
     1
 44
1.0
1001
ACAD
1000
MTEXTBEGIN
1070
    73
1070
     1
1070
    44
1040
1.0
1070
    74
1070
     0
1000
MTEXTEND
  0
SOLID
  5
11FE
330
11FA
100
AcDbEntity
  8
cotas
100
AcDbTrace
 10
3146.601011193642
 20
1475.509288979342
 30
0.0
 11
3148.615584775112
 21
1472.853614979026
 31
0.0
 12
3139.641275983429
 22
1468.137731234775
 32
0.0
 13
3139.641275983429
 23
1468.137731234775
 33
0.0
  0
POINT
  5
11FF
330
11FA
100
AcDbEntity
  8
Defpoints
 62
     0
100
AcDbPoint
 10
3139.641275983429
 20
1468.137731234775
 30
0.0
  0
POINT
  5
1200
330
11FA
100
AcDbEntity
  8
Defpoints
 62
     0
100
AcDbPoint
 10
3171.50936398722
 20
1492.31261421241
 30
0.0
  0
ENDBLK
  5
1201
330
11FA
100
AcDbEntity
  8
0
100
AcDbBlockEnd
  0
BLOCK
  5
1203
330
1202
100
AcDbEntity
  8
0
100
AcDbBlockBegin
  2
*D37
 70
     1
 10
0.0
 20
0.0
 30
0.0
  3
*D37
  1

  0
LINE
  5
1204
330
1202
100
AcDbEntity
  8
cotas
100
AcDbLine
 10
3205.141774398121
 20
1680.314777954196
 30
0.0
 11
3149.774568627122
 21
1732.991073310097
 31
0.0
  0
MTEXT
  5
1205
330
1202
100
AcDbEntity
  8
cotas
100
AcDbMText
 10
3199.568920988879
 20
1699.702265993545
 30
0.0
 40
10.0
 41
0.0
 71
     5
 72
     1
  1
R40
  7
SANINDUSA
 11
0.7244931786699905
 21
-0.6892819699227984
 31
0.0
 73
     1
 44
1.0
1001
ACAD
1000
MTEXTBEGIN
1070
    73
1070
     1
1070
    44
1040
1.0
1070
    74
1070
     0
1000
MTEXTEND
  0
SOLID
  5
1206
330
1202
100
AcDbEntity
  8
cotas
100
AcDbTrace
 10
3150.923371910326
 20
1734.198561941213
 30
0.0
 11
3148.625765343917
 21
1731.78358467898
 31
0.0
 12
3142.529636840422
 22
1739.883893009325
 32
0.0
 13
3142.529636840422
 23
1739.883893009325
 33
0.0
  0
POINT
  5
1207
330
1202
100
AcDbEntity
  8
Defpoints
 62
     0
100
AcDbPoint
 10
3142.529636840422
 20
1739.883893009325
 30
0.0
  0
POINT
  5
1208
330
1202
100
AcDbEntity
  8
Defpoints
 62
     0
100
AcDbPoint
 10
3171.509363987223
 20
1712.312614212411
 30
0.0
  0
ENDBLK
  5
1209
330
1202
100
AcDbEntity
  8
0
100
AcDbBlockEnd
  0
BLOCK
  5
120B
330
120A
100
AcDbEntity
  8
0
100
AcDbBlockBegin
  2
*D38
 70
     1
 10
0.0
 20
0.0
 30
0.0
  3
*D38
  1

  0
LINE
  5
120C
330
120A
100
AcDbEntity
  8
cotas
100
AcDbLine
 10
3151.310679833646
 20
1455.312614212411
 30
0.0
 11
3101.509363987226
 21
1455.312614212411
 31
0.0
  0
LINE
  5
120D
330
120A
100
AcDbEntity
  8
cotas
100
AcDbLine
 10
3151.310679833646
 20
1452.312614212411
 30
0.0
 11
3101.509363987226
 21
1452.312614212411
 31
0.0
  0
LINE
  5
120E
330
120A
100
AcDbEntity
  8
cotas
100
AcDbLine
 10
3106.509363987226
 20
1465.312614212411
 30
0.0
 11
3106.509363987226
 21
1475.312614212411
 31
0.0
  0
LINE
  5
120F
330
120A
100
AcDbEntity
  8
cotas
100
AcDbLine
 10
3106.509363987226
 20
1442.312614212411
 30
0.0
 11
3106.509363987226
 21
1415.724299907508
 31
0.0
  0
LINE
  5
1210
330
120A
100
AcDbEntity
  8
cotas
100
AcDbLine
 10
3106.509363987226
 20
1455.312614212411
 30
0.0
 11
3106.509363987226
 21
1452.312614212411
 31
0.0
  0
SOLID
  5
1211
330
120A
100
AcDbEntity
  8
cotas
100
AcDbTrace
 10
3104.84269732056
 20
1465.312614212411
 30
0.0
 11
3108.176030653892
 21
1465.312614212411
 31
0.0
 12
3106.509363987226
 22
1455.312614212411
 32
0.0
 13
3106.509363987226
 23
1455.312614212411
 33
0.0
  0
SOLID
  5
1212
330
120A
100
AcDbEntity
  8
cotas
100
AcDbTrace
 10
3104.84269732056
 20
1442.312614212411
 30
0.0
 11
3108.176030653892
 21
1442.312614212411
 31
0.0
 12
3106.509363987226
 22
1452.312614212411
 32
0.0
 13
3106.509363987226
 23
1452.312614212411
 33
0.0
  0
MTEXT
  5
1213
330
120A
100
AcDbEntity
  8
cotas
100
AcDbMText
 10
3096.301170568824
 20
1424.01845705996
 30
0.0
 40
10.0
 41
0.0
 71
     5
 72
     1
  1
3
  7
SANINDUSA
 11
0.0000000000000001
 21
1.0
 31
0.0
 73
     1
 44
1.0
1001
ACAD
1000
MTEXTBEGIN
1070
    73
1070
     1
1070
    44
1040
1.0
1070
    74
1070
     0
1000
MTEXTEND
  0
POINT
  5
1214
330
120A
100
AcDbEntity
  8
Defpoints
 62
     0
100
AcDbPoint
 10
3156.310679833646
 20
1455.312614212411
 30
0.0
  0
POINT
  5
1215
330
120A
100
AcDbEntity
  8
Defpoints
 62
     0
100
AcDbPoint
 10
3156.310679833646
 20
1452.312614212411
 30
0.0
  0
POINT
  5
1216
330
120A
100
AcDbEntity
  8
Defpoints
 62
     0
100
AcDbPoint
 10
3106.509363987226
 20
1452.312614212411
 30
0.0
  0
ENDBLK
  5
1217
330
120A
100
AcDbEntity
  8
0
100
AcDbBlockEnd
  0
BLOCK
  5
1219
330
1218
100
AcDbEntity
  8
0
100
AcDbBlockBegin
  2
*D39
 70
     1
 10
0.0
 20
0.0
 30
0.0
  3
*D39
  1

  0
LINE
  5
121A
330
1218
100
AcDbEntity
  8
cotas
100
AcDbLine
 10
4424.781477025723
 20
1717.312614212409
 30
0.0
 11
4424.781477025723
 21
1782.312614212409
 31
0.0
  0
LINE
  5
121B
330
1218
100
AcDbEntity
  8
cotas
100
AcDbLine
 10
4426.781477025722
 20
1607.312614212409
 30
0.0
 11
4426.781477025722
 21
1782.312614212409
 31
0.0
  0
LINE
  5
121C
330
1218
100
AcDbEntity
  8
cotas
100
AcDbLine
 10
4414.781477025722
 20
1777.312614212409
 30
0.0
 11
4404.781477025722
 21
1777.312614212409
 31
0.0
  0
LINE
  5
121D
330
1218
100
AcDbEntity
  8
cotas
100
AcDbLine
 10
4436.781477025722
 20
1777.312614212409
 30
0.0
 11
4463.551121082137
 21
1777.312614212409
 31
0.0
  0
LINE
  5
121E
330
1218
100
AcDbEntity
  8
cotas
100
AcDbLine
 10
4424.781477025723
 20
1777.312614212409
 30
0.0
 11
4426.781477025722
 21
1777.312614212409
 31
0.0
  0
SOLID
  5
121F
330
1218
100
AcDbEntity
  8
cotas
100
AcDbTrace
 10
4414.781477025722
 20
1778.979280879076
 30
0.0
 11
4414.781477025722
 21
1775.645947545742
 31
0.0
 12
4424.781477025723
 22
1777.312614212409
 32
0.0
 13
4424.781477025723
 23
1777.312614212409
 33
0.0
  0
SOLID
  5
1220
330
1218
100
AcDbEntity
  8
cotas
100
AcDbTrace
 10
4436.781477025722
 20
1778.979280879076
 30
0.0
 11
4436.781477025722
 21
1775.645947545742
 31
0.0
 12
4426.781477025722
 22
1777.312614212409
 32
0.0
 13
4426.781477025722
 23
1777.312614212409
 33
0.0
  0
MTEXT
  5
1221
330
1218
100
AcDbEntity
  8
cotas
100
AcDbMText
 10
4455.16629905393
 20
1787.41671092161
 30
0.0
 40
10.0
 41
0.0
 71
     5
 72
     1
  1
2
  7
SANINDUSA
 73
     1
 44
1.0
1001
ACAD
1000
MTEXTBEGIN
1070
    73
1070
     1
1070
    44
1040
1.0
1070
    74
1070
     0
1000
MTEXTEND
  0
POINT
  5
1222
330
1218
100
AcDbEntity
  8
Defpoints
 62
     0
100
AcDbPoint
 10
4424.781477025723
 20
1712.312614212409
 30
0.0
  0
POINT
  5
1223
330
1218
100
AcDbEntity
  8
Defpoints
 62
     0
100
AcDbPoint
 10
4426.781477025722
 20
1602.312614212409
 30
0.0
  0
POINT
  5
1224
330
1218
100
AcDbEntity
  8
Defpoints
 62
     0
100
AcDbPoint
 10
4426.781477025722
 20
1777.312614212409
 30
0.0
  0
ENDBLK
  5
1225
330
1218
100
AcDbEntity
  8
0
100
AcDbBlockEnd
  0
BLOCK
  5
1227
330
1226
100
AcDbEntity
  8
0
100
AcDbBlockBegin
  2
*D40
 70
     1
 10
0.0
 20
0.0
 30
0.0
  3
*D40
  1

  0
LINE
  5
1228
330
1226
100
AcDbEntity
  8
cotas
100
AcDbLine
 10
3874.781477025726
 20
1717.312614212409
 30
0.0
 11
3874.781477025726
 21
1782.312614212409
 31
0.0
  0
LINE
  5
1229
330
1226
100
AcDbEntity
  8
cotas
100
AcDbLine
 10
3872.781477025723
 20
1607.312614212409
 30
0.0
 11
3872.781477025723
 21
1782.312614212409
 31
0.0
  0
LINE
  5
122A
330
1226
100
AcDbEntity
  8
cotas
100
AcDbLine
 10
3884.781477025727
 20
1777.312614212409
 30
0.0
 11
3894.781477025727
 21
1777.312614212409
 31
0.0
  0
LINE
  5
122B
330
1226
100
AcDbEntity
  8
cotas
100
AcDbLine
 10
3862.781477025723
 20
1777.312614212409
 30
0.0
 11
3836.01183296931
 21
1777.312614212409
 31
0.0
  0
LINE
  5
122C
330
1226
100
AcDbEntity
  8
cotas
100
AcDbLine
 10
3874.781477025726
 20
1777.312614212409
 30
0.0
 11
3872.781477025723
 21
1777.312614212409
 31
0.0
  0
SOLID
  5
122D
330
1226
100
AcDbEntity
  8
cotas
100
AcDbTrace
 10
3884.781477025727
 20
1778.979280879076
 30
0.0
 11
3884.781477025727
 21
1775.645947545742
 31
0.0
 12
3874.781477025726
 22
1777.312614212409
 32
0.0
 13
3874.781477025726
 23
1777.312614212409
 33
0.0
  0
SOLID
  5
122E
330
1226
100
AcDbEntity
  8
cotas
100
AcDbTrace
 10
3862.781477025723
 20
1778.979280879076
 30
0.0
 11
3862.781477025723
 21
1775.645947545742
 31
0.0
 12
3872.781477025723
 22
1777.312614212409
 32
0.0
 13
3872.781477025723
 23
1777.312614212409
 33
0.0
  0
MTEXT
  5
122F
330
1226
100
AcDbEntity
  8
cotas
100
AcDbMText
 10
3844.396654997516
 20
1787.41671092161
 30
0.0
 40
10.0
 41
0.0
 71
     5
 72
     1
  1
2
  7
SANINDUSA
 73
     1
 44
1.0
1001
ACAD
1000
MTEXTBEGIN
1070
    73
1070
     1
1070
    44
1040
1.0
1070
    74
1070
     0
1000
MTEXTEND
  0
POINT
  5
1230
330
1226
100
AcDbEntity
  8
Defpoints
 62
     0
100
AcDbPoint
 10
3874.781477025726
 20
1712.312614212409
 30
0.0
  0
POINT
  5
1231
330
1226
100
AcDbEntity
  8
Defpoints
 62
     0
100
AcDbPoint
 10
3872.781477025723
 20
1602.31261421241
 30
0.0
  0
POINT
  5
1232
330
1226
100
AcDbEntity
  8
Defpoints
 62
     0
100
AcDbPoint
 10
3872.781477025723
 20
1777.312614212409
 30
0.0
  0
ENDBLK
  5
1233
330
1226
100
AcDbEntity
  8
0
100
AcDbBlockEnd
  0
BLOCK
  5
1235
330
1234
100
AcDbEntity
  8
0
100
AcDbBlockBegin
  2
*D41
 70
     1
 10
0.0
 20
0.0
 30
0.0
  3
*D41
  1

  0
LINE
  5
1236
330
1234
100
AcDbEntity
  8
cotas
100
AcDbLine
 10
3331.282908312056
 20
2211.248671882434
 30
0.0
 11
3337.81496588665
 21
2216.92690290268
 31
0.0
  0
LINE
  5
1237
330
1234
100
AcDbEntity
  8
cotas
100
AcDbLine
 10
3251.735812509828
 20
2211.248671882434
 30
0.0
 11
3245.203754935236
 21
2216.92690290268
 31
0.0
  0
ARC
  5
1238
330
1234
100
AcDbEntity
  8
cotas
100
AcDbCircle
 10
3291.509360410942
 20
2176.674054176094
 30
0.0
 40
56.35552892019756
100
AcDbArc
 50
51.18022846336307
 51
128.8197715366369
  0
SOLID
  5
1239
330
1234
100
AcDbEntity
  8
cotas
100
AcDbTrace
 10
3327.992980268108
 20
2221.782588273693
 30
0.0
 11
3325.681226463872
 21
2219.381150067178
 31
0.0
 12
3334.041417985536
 22
2213.646607757727
 32
0.0
 13
3334.041417985536
 23
2213.646607757727
 33
0.0
  0
SOLID
  5
123A
330
1234
100
AcDbEntity
  8
cotas
100
AcDbTrace
 10
3257.337494358013
 20
2219.381150067178
 30
0.0
 11
3255.025740553777
 21
2221.782588273693
 31
0.0
 12
3248.97730283635
 22
2213.646607757727
 32
0.0
 13
3248.97730283635
 23
2213.646607757727
 33
0.0
  0
MTEXT
  5
123B
102
{ACAD_XDICTIONARY
360
1D25
102
}
330
1234
100
AcDbEntity
  8
cotas
100
AcDbMText
 10
3291.509360410942
 20
2244.386198274264
 30
0.0
 40
10.0
 41
0.0
 71
     5
 72
     1
  1
98,0\U+00B0
  7
SANINDUSA
 73
     1
 44
1.0
1001
ACAD
1000
MTEXTBEGIN
1070
    73
1070
     1
1070
    44
1040
1.0
1070
    74
1070
     0
1000
MTEXTEND
  0
POINT
  5
123C
330
1234
100
AcDbEntity
  8
Defpoints
 62
     0
100
AcDbPoint
 10
3307.357947045172
 20
2230.75517788458
 30
0.0
  0
POINT
  5
123D
330
1234
100
AcDbEntity
  8
Defpoints
 62
     0
100
AcDbPoint
 10
3255.509360410942
 20
2207.968376737481
 30
0.0
  0
POINT
  5
123E
330
1234
100
AcDbEntity
  8
Defpoints
 62
     0
100
AcDbPoint
 10
3315.009360410942
 20
2197.102292514777
 30
0.0
  0
POINT
  5
123F
330
1234
100
AcDbEntity
  8
Defpoints
 62
     0
100
AcDbPoint
 10
3327.509360410942
 20
2207.968376737481
 30
0.0
  0
POINT
  5
1240
330
1234
100
AcDbEntity
  8
Defpoints
 62
     0
100
AcDbPoint
 10
3268.009360410943
 20
2197.102292514777
 30
0.0
  0
ENDBLK
  5
1241
330
1234
100
AcDbEntity
  8
0
100
AcDbBlockEnd
  0
BLOCK
  5
1243
330
1242
100
AcDbEntity
  8
0
100
AcDbBlockBegin
  2
*D42
 70
     1
 10
0.0
 20
0.0
 30
0.0
  3
*D42
  1

  0
LINE
  5
1244
330
1242
100
AcDbEntity
  8
cotas
100
AcDbLine
 10
3312.885853528924
 20
2327.968376737485
 30
0.0
 11
3332.368794611431
 21
2327.968376737485
 31
0.0
  0
LINE
  5
1245
330
1242
100
AcDbEntity
  8
cotas
100
AcDbLine
 10
3292.227851158869
 20
2367.968376737485
 30
0.0
 11
3332.368794611431
 21
2367.968376737485
 31
0.0
  0
LINE
  5
1246
330
1242
100
AcDbEntity
  8
cotas
100
AcDbLine
 10
3327.368794611432
 20
2337.968376737485
 30
0.0
 11
3327.368794611432
 21
2357.968376737485
 31
0.0
  0
SOLID
  5
1247
330
1242
100
AcDbEntity
  8
cotas
100
AcDbTrace
 10
3325.702127944765
 20
2337.968376737485
 30
0.0
 11
3329.035461278098
 21
2337.968376737485
 31
0.0
 12
3327.368794611432
 22
2327.968376737485
 32
0.0
 13
3327.368794611432
 23
2327.968376737485
 33
0.0
  0
SOLID
  5
1248
330
1242
100
AcDbEntity
  8
cotas
100
AcDbTrace
 10
3325.702127944765
 20
2357.968376737485
 30
0.0
 11
3329.035461278098
 21
2357.968376737485
 31
0.0
 12
3327.368794611432
 22
2367.968376737485
 32
0.0
 13
3327.368794611432
 23
2367.968376737485
 33
0.0
  0
MTEXT
  5
1249
330
1242
100
AcDbEntity
  8
cotas
100
AcDbMText
 10
3317.163959151391
 20
2347.968376737485
 30
0.0
 40
10.0
 41
0.0
 71
     5
 72
     1
  1
40
  7
SANINDUSA
 11
0.0000000000000001
 21
1.0
 31
0.0
 73
     1
 44
1.0
1001
ACAD
1000
MTEXTBEGIN
1070
    73
1070
     1
1070
    44
1040
1.0
1070
    74
1070
     0
1000
MTEXTEND
  0
POINT
  5
124A
330
1242
100
AcDbEntity
  8
Defpoints
 62
     0
100
AcDbPoint
 10
3307.885853528925
 20
2327.968376737485
 30
0.0
  0
POINT
  5
124B
330
1242
100
AcDbEntity
  8
Defpoints
 62
     0
100
AcDbPoint
 10
3287.227851158868
 20
2367.968376737485
 30
0.0
  0
POINT
  5
124C
330
1242
100
AcDbEntity
  8
Defpoints
 62
     0
100
AcDbPoint
 10
3327.368794611432
 20
2367.968376737485
 30
0.0
  0
ENDBLK
  5
124D
330
1242
100
AcDbEntity
  8
0
100
AcDbBlockEnd
  0
BLOCK
  5
124F
330
124E
100
AcDbEntity
  8
0
100
AcDbBlockBegin
  2
*D43
 70
     1
 10
0.0
 20
0.0
 30
0.0
  3
*D43
  1

  0
LINE
  5
1250
330
124E
100
AcDbEntity
  8
cotas
100
AcDbLine
 10
3894.58279287216
 20
1455.312614212407
 30
0.0
 11
3846.846760881048
 21
1455.312614212407
 31
0.0
  0
LINE
  5
1251
330
124E
100
AcDbEntity
  8
cotas
100
AcDbLine
 10
3894.582792872158
 20
1452.312614212409
 30
0.0
 11
3846.846760881048
 21
1452.312614212409
 31
0.0
  0
LINE
  5
1252
330
124E
100
AcDbEntity
  8
cotas
100
AcDbLine
 10
3851.846760881048
 20
1465.312614212407
 30
0.0
 11
3851.846760881048
 21
1475.312614212407
 31
0.0
  0
LINE
  5
1253
330
124E
100
AcDbEntity
  8
cotas
100
AcDbLine
 10
3851.846760881048
 20
1442.312614212409
 30
0.0
 11
3851.846760881048
 21
1415.724299907506
 31
0.0
  0
LINE
  5
1254
330
124E
100
AcDbEntity
  8
cotas
100
AcDbLine
 10
3851.846760881048
 20
1455.312614212407
 30
0.0
 11
3851.846760881048
 21
1452.312614212409
 31
0.0
  0
SOLID
  5
1255
330
124E
100
AcDbEntity
  8
cotas
100
AcDbTrace
 10
3850.180094214382
 20
1465.312614212407
 30
0.0
 11
3853.513427547715
 21
1465.312614212407
 31
0.0
 12
3851.846760881048
 22
1455.312614212407
 32
0.0
 13
3851.846760881048
 23
1455.312614212407
 33
0.0
  0
SOLID
  5
1256
330
124E
100
AcDbEntity
  8
cotas
100
AcDbTrace
 10
3850.180094214382
 20
1442.312614212409
 30
0.0
 11
3853.513427547715
 21
1442.312614212409
 31
0.0
 12
3851.846760881048
 22
1452.312614212409
 32
0.0
 13
3851.846760881048
 23
1452.312614212409
 33
0.0
  0
MTEXT
  5
1257
330
124E
100
AcDbEntity
  8
cotas
100
AcDbMText
 10
3841.638567462646
 20
1424.018457059958
 30
0.0
 40
10.0
 41
0.0
 71
     5
 72
     1
  1
3
  7
SANINDUSA
 11
0.0000000000000001
 21
1.0
 31
0.0
 73
     1
 44
1.0
1001
ACAD
1000
MTEXTBEGIN
1070
    73
1070
     1
1070
    44
1040
1.0
1070
    74
1070
     0
1000
MTEXTEND
  0
POINT
  5
1258
330
124E
100
AcDbEntity
  8
Defpoints
 62
     0
100
AcDbPoint
 10
3899.582792872159
 20
1455.312614212407
 30
0.0
  0
POINT
  5
1259
330
124E
100
AcDbEntity
  8
Defpoints
 62
     0
100
AcDbPoint
 10
3899.582792872158
 20
1452.312614212409
 30
0.0
  0
POINT
  5
125A
330
124E
100
AcDbEntity
  8
Defpoints
 62
     0
100
AcDbPoint
 10
3851.846760881048
 20
1452.312614212409
 30
0.0
  0
ENDBLK
  5
125B
330
124E
100
AcDbEntity
  8
0
100
AcDbBlockEnd
  0
BLOCK
  5
125D
330
125C
100
AcDbEntity
  8
0
100
AcDbBlockBegin
  2
*D44
 70
     1
 10
0.0
 20
0.0
 30
0.0
  3
*D44
  1

  0
LINE
  5
125E
330
125C
100
AcDbEntity
  8
cotas
100
AcDbLine
 10
3980.048274069353
 20
863.2128727657896
 30
0.0
 11
3928.463805888514
 21
815.6946604779969
 31
0.0
  0
MTEXT
  5
125F
330
125C
100
AcDbEntity
  8
cotas
100
AcDbMText
 10
3957.201766897764
 20
855.9278236056737
 30
0.0
 40
10.0
 41
0.0
 71
     5
 72
     1
  1
R175
  7
SANINDUSA
 11
0.7355010371951901
 21
0.6775235968472241
 31
0.0
 73
     1
 44
1.0
1001
ACAD
1000
MTEXTBEGIN
1070
    73
1070
     1
1070
    44
1040
1.0
1070
    74
1070
     0
1000
MTEXTEND
  0
SOLID
  5
1260
330
125C
100
AcDbEntity
  8
cotas
100
AcDbTrace
 10
3927.334599893769
 20
816.9204955399889
 30
0.0
 11
3929.593011883259
 21
814.4688254160051
 31
0.0
 12
3921.108795516563
 22
808.9194245095249
 32
0.0
 13
3921.108795516563
 23
808.9194245095249
 33
0.0
  0
POINT
  5
1261
330
125C
100
AcDbEntity
  8
Defpoints
 62
     0
100
AcDbPoint
 10
3921.108795516563
 20
808.9194245095249
 30
0.0
  0
POINT
  5
1262
330
125C
100
AcDbEntity
  8
Defpoints
 62
     0
100
AcDbPoint
 10
4049.821477025721
 20
927.4860539577899
 30
0.0
  0
ENDBLK
  5
1263
330
125C
100
AcDbEntity
  8
0
100
AcDbBlockEnd
  0
BLOCK
  5
1265
330
1264
100
AcDbEntity
  8
0
100
AcDbBlockBegin
  2
*D45
 70
     1
 10
0.0
 20
0.0
 30
0.0
  3
*D45
  1

  0
LINE
  5
1266
330
1264
100
AcDbEntity
  8
cotas
100
AcDbLine
 10
3973.661087952116
 20
981.6139446009483
 30
0.0
 11
3907.295376378003
 21
1017.124246720538
 31
0.0
  0
MTEXT
  5
1267
330
1264
100
AcDbEntity
  8
cotas
100
AcDbMText
 10
3959.279497859842
 20
1000.886741388667
 30
0.0
 40
10.0
 41
0.0
 71
     5
 72
     1
  1
R200
  7
SANINDUSA
 11
0.8817163191985054
 21
-0.4717799619091926
 31
0.0
 73
     1
 44
1.0
1001
ACAD
1000
MTEXTBEGIN
1070
    73
1070
     1
1070
    44
1040
1.0
1070
    74
1070
     0
1000
MTEXTEND
  0
SOLID
  5
1268
330
1264
100
AcDbEntity
  8
cotas
100
AcDbTrace
 10
3908.081676314518
 20
1018.593773919202
 30
0.0
 11
3906.509076441487
 21
1015.654719521874
 31
0.0
 12
3898.478213186018
 22
1021.84204633963
 32
0.0
 13
3898.478213186018
 23
1021.84204633963
 33
0.0
  0
POINT
  5
1269
330
1264
100
AcDbEntity
  8
Defpoints
 62
     0
100
AcDbPoint
 10
3898.478213186018
 20
1021.84204633963
 30
0.0
  0
POINT
  5
126A
330
1264
100
AcDbEntity
  8
Defpoints
 62
     0
100
AcDbPoint
 10
4074.821477025718
 20
927.4860539577916
 30
0.0
  0
ENDBLK
  5
126B
330
1264
100
AcDbEntity
  8
0
100
AcDbBlockEnd
  0
BLOCK
  5
126D
330
126C
100
AcDbEntity
  8
0
100
AcDbBlockBegin
  2
*D46
 70
     1
 10
0.0
 20
0.0
 30
0.0
  3
*D46
  1

  0
LINE
  5
126E
330
126C
100
AcDbEntity
  8
cotas
100
AcDbLine
 10
4336.81864198
 20
972.5620992280283
 30
0.0
 11
4401.081226331946
 21
998.4261750072091
 31
0.0
  0
MTEXT
  5
126F
330
126C
100
AcDbEntity
  8
cotas
100
AcDbMText
 10
4353.205659874584
 20
990.1614308666298
 30
0.0
 40
10.0
 41
0.0
 71
     5
 72
     1
  1
R200
  7
SANINDUSA
 11
0.9276828910854007
 21
0.3733690581548401
 31
0.0
 73
     1
 44
1.0
1001
ACAD
1000
MTEXTBEGIN
1070
    73
1070
     1
1070
    44
1040
1.0
1070
    74
1070
     0
1000
MTEXTEND
  0
SOLID
  5
1270
330
126C
100
AcDbEntity
  8
cotas
100
AcDbTrace
 10
4400.458944568355
 20
999.9723131590181
 30
0.0
 11
4401.703508095537
 21
996.8800368554001
 31
0.0
 12
4410.358055242801
 22
1002.159865588757
 32
0.0
 13
4410.358055242801
 23
1002.159865588757
 33
0.0
  0
POINT
  5
1271
330
126C
100
AcDbEntity
  8
Defpoints
 62
     0
100
AcDbPoint
 10
4410.358055242801
 20
1002.159865588757
 30
0.0
  0
POINT
  5
1272
330
126C
100
AcDbEntity
  8
Defpoints
 62
     0
100
AcDbPoint
 10
4224.821477025716
 20
927.486053957787
 30
0.0
  0
ENDBLK
  5
1273
330
126C
100
AcDbEntity
  8
0
100
AcDbBlockEnd
  0
BLOCK
  5
1275
330
1274
100
AcDbEntity
  8
0
100
AcDbBlockBegin
  2
*D47
 70
     1
 10
0.0
 20
0.0
 30
0.0
  3
*D47
  1

  0
LINE
  5
1276
330
1274
100
AcDbEntity
  8
cotas
100
AcDbLine
 10
4300.463035183358
 20
853.2899962500382
 30
0.0
 11
4342.838920171258
 21
791.2041576154417
 31
0.0
  0
MTEXT
  5
1277
330
1274
100
AcDbEntity
  8
cotas
100
AcDbMText
 10
4321.077817577481
 20
841.0398706160004
 30
0.0
 40
10.0
 41
0.0
 71
     5
 72
     1
  1
R175
  7
SANINDUSA
 11
0.5637420796699089
 21
-0.8259508869233364
 31
0.0
 73
     1
 44
1.0
1001
ACAD
1000
MTEXTBEGIN
1070
    73
1070
     1
1070
    44
1040
1.0
1070
    74
1070
     0
1000
MTEXTEND
  0
SOLID
  5
1278
330
1274
100
AcDbEntity
  8
cotas
100
AcDbTrace
 10
4344.215504982797
 20
792.1437277482248
 30
0.0
 11
4341.46233535972
 21
790.2645874826587
 31
0.0
 12
4348.476340967957
 22
782.9446487462084
 32
0.0
 13
4348.476340967957
 23
782.9446487462084
 33
0.0
  0
POINT
  5
1279
330
1274
100
AcDbEntity
  8
Defpoints
 62
     0
100
AcDbPoint
 10
4348.476340967957
 20
782.9446487462084
 30
0.0
  0
POINT
  5
127A
330
1274
100
AcDbEntity
  8
Defpoints
 62
     0
100
AcDbPoint
 10
4249.821477025725
 20
927.486053957789
 30
0.0
  0
ENDBLK
  5
127B
330
1274
100
AcDbEntity
  8
0
100
AcDbBlockEnd
  0
BLOCK
  5
127D
330
127C
100
AcDbEntity
  8
0
100
AcDbBlockBegin
  2
*D48
 70
     1
 10
0.0
 20
0.0
 30
0.0
  3
*D48
  1

  0
LINE
  5
127E
330
127C
100
AcDbEntity
  8
cotas
100
AcDbLine
 10
4424.781477025726
 20
922.4860539577894
 30
0.0
 11
4424.781477025726
 21
697.4860539577893
 31
0.0
  0
LINE
  5
127F
330
127C
100
AcDbEntity
  8
cotas
100
AcDbLine
 10
4426.82147702572
 20
922.4860539577894
 30
0.0
 11
4426.82147702572
 21
697.4860539577893
 31
0.0
  0
LINE
  5
1280
330
127C
100
AcDbEntity
  8
cotas
100
AcDbLine
 10
4414.781477025726
 20
702.4860539577893
 30
0.0
 11
4404.781477025727
 21
702.4860539577893
 31
0.0
  0
LINE
  5
1281
330
127C
100
AcDbEntity
  8
cotas
100
AcDbLine
 10
4436.82147702572
 20
702.4860539577893
 30
0.0
 11
4463.591121082134
 21
702.4860539577893
 31
0.0
  0
LINE
  5
1282
330
127C
100
AcDbEntity
  8
cotas
100
AcDbLine
 10
4424.781477025726
 20
702.4860539577893
 30
0.0
 11
4426.82147702572
 21
702.4860539577893
 31
0.0
  0
SOLID
  5
1283
330
127C
100
AcDbEntity
  8
cotas
100
AcDbTrace
 10
4414.781477025726
 20
704.152720624456
 30
0.0
 11
4414.781477025726
 21
700.8193872911228
 31
0.0
 12
4424.781477025726
 22
702.4860539577893
 32
0.0
 13
4424.781477025726
 23
702.4860539577893
 33
0.0
  0
SOLID
  5
1284
330
127C
100
AcDbEntity
  8
cotas
100
AcDbTrace
 10
4436.82147702572
 20
704.152720624456
 30
0.0
 11
4436.82147702572
 21
700.8193872911228
 31
0.0
 12
4426.82147702572
 22
702.4860539577893
 32
0.0
 13
4426.82147702572
 23
702.4860539577893
 33
0.0
  0
MTEXT
  5
1285
330
127C
100
AcDbEntity
  8
cotas
100
AcDbMText
 10
4455.206299053926
 20
712.5901506669902
 30
0.0
 40
10.0
 41
0.0
 71
     5
 72
     1
  1
2
  7
SANINDUSA
 73
     1
 44
1.0
1001
ACAD
1000
MTEXTBEGIN
1070
    73
1070
     1
1070
    44
1040
1.0
1070
    74
1070
     0
1000
MTEXTEND
  0
POINT
  5
1286
330
127C
100
AcDbEntity
  8
Defpoints
 62
     0
100
AcDbPoint
 10
4424.781477025726
 20
927.4860539577893
 30
0.0
  0
POINT
  5
1287
330
127C
100
AcDbEntity
  8
Defpoints
 62
     0
100
AcDbPoint
 10
4426.82147702572
 20
927.4860539577893
 30
0.0
  0
POINT
  5
1288
330
127C
100
AcDbEntity
  8
Defpoints
 62
     0
100
AcDbPoint
 10
4426.82147702572
 20
702.4860539577893
 30
0.0
  0
ENDBLK
  5
1289
330
127C
100
AcDbEntity
  8
0
100
AcDbBlockEnd
  0
BLOCK
  5
128B
330
128A
100
AcDbEntity
  8
0
100
AcDbBlockBegin
  2
*D49
 70
     1
 10
0.0
 20
0.0
 30
0.0
  3
*D49
  1

  0
LINE
  5
128C
330
128A
100
AcDbEntity
  8
cotas
100
AcDbLine
 10
3874.781477025726
 20
922.4860539577894
 30
0.0
 11
3874.781477025726
 21
697.4860539577893
 31
0.0
  0
LINE
  5
128D
330
128A
100
AcDbEntity
  8
cotas
100
AcDbLine
 10
3872.82147702572
 20
922.4860539577894
 30
0.0
 11
3872.82147702572
 21
697.4860539577893
 31
0.0
  0
LINE
  5
128E
330
128A
100
AcDbEntity
  8
cotas
100
AcDbLine
 10
3884.781477025726
 20
702.4860539577893
 30
0.0
 11
3894.781477025726
 21
702.4860539577893
 31
0.0
  0
LINE
  5
128F
330
128A
100
AcDbEntity
  8
cotas
100
AcDbLine
 10
3862.82147702572
 20
702.4860539577893
 30
0.0
 11
3836.051832969307
 21
702.4860539577893
 31
0.0
  0
LINE
  5
1290
330
128A
100
AcDbEntity
  8
cotas
100
AcDbLine
 10
3874.781477025726
 20
702.4860539577893
 30
0.0
 11
3872.82147702572
 21
702.4860539577893
 31
0.0
  0
SOLID
  5
1291
330
128A
100
AcDbEntity
  8
cotas
100
AcDbTrace
 10
3884.781477025726
 20
704.152720624456
 30
0.0
 11
3884.781477025726
 21
700.8193872911228
 31
0.0
 12
3874.781477025726
 22
702.4860539577893
 32
0.0
 13
3874.781477025726
 23
702.4860539577893
 33
0.0
  0
SOLID
  5
1292
330
128A
100
AcDbEntity
  8
cotas
100
AcDbTrace
 10
3862.82147702572
 20
704.152720624456
 30
0.0
 11
3862.82147702572
 21
700.8193872911228
 31
0.0
 12
3872.82147702572
 22
702.4860539577893
 32
0.0
 13
3872.82147702572
 23
702.4860539577893
 33
0.0
  0
MTEXT
  5
1293
330
128A
100
AcDbEntity
  8
cotas
100
AcDbMText
 10
3844.436654997513
 20
712.5901506669902
 30
0.0
 40
10.0
 41
0.0
 71
     5
 72
     1
  1
2
  7
SANINDUSA
 73
     1
 44
1.0
1001
ACAD
1000
MTEXTBEGIN
1070
    73
1070
     1
1070
    44
1040
1.0
1070
    74
1070
     0
1000
MTEXTEND
  0
POINT
  5
1294
330
128A
100
AcDbEntity
  8
Defpoints
 62
     0
100
AcDbPoint
 10
3874.781477025726
 20
927.4860539577893
 30
0.0
  0
POINT
  5
1295
330
128A
100
AcDbEntity
  8
Defpoints
 62
     0
100
AcDbPoint
 10
3872.82147702572
 20
927.4860539577893
 30
0.0
  0
POINT
  5
1296
330
128A
100
AcDbEntity
  8
Defpoints
 62
     0
100
AcDbPoint
 10
3872.82147702572
 20
702.4860539577893
 30
0.0
  0
ENDBLK
  5
1297
330
128A
100
AcDbEntity
  8
0
100
AcDbBlockEnd
  0
BLOCK
  5
1299
330
1298
100
AcDbEntity
  8
0
100
AcDbBlockBegin
  2
*D50
 70
     1
 10
0.0
 20
0.0
 30
0.0
  3
*D50
  1

  0
LINE
  5
129A
330
1298
100
AcDbEntity
  8
cotas
100
AcDbLine
 10
4044.781477025726
 20
752.4860539577893
 30
0.0
 11
3795.332182196982
 21
752.4860539577895
 31
0.0
  0
LINE
  5
129B
330
1298
100
AcDbEntity
  8
cotas
100
AcDbLine
 10
4044.781477025726
 20
750.4860539577894
 30
0.0
 11
3795.332182196982
 21
750.4860539577895
 31
0.0
  0
LINE
  5
129C
330
1298
100
AcDbEntity
  8
cotas
100
AcDbLine
 10
3800.332182196982
 20
762.4860539577895
 30
0.0
 11
3800.332182196982
 21
772.4860539577895
 31
0.0
  0
LINE
  5
129D
330
1298
100
AcDbEntity
  8
cotas
100
AcDbLine
 10
3800.332182196982
 20
740.4860539577895
 30
0.0
 11
3800.332182196982
 21
713.7164099013759
 31
0.0
  0
LINE
  5
129E
330
1298
100
AcDbEntity
  8
cotas
100
AcDbLine
 10
3800.332182196982
 20
752.4860539577895
 30
0.0
 11
3800.332182196982
 21
750.4860539577895
 31
0.0
  0
SOLID
  5
129F
330
1298
100
AcDbEntity
  8
cotas
100
AcDbTrace
 10
3798.665515530315
 20
762.4860539577895
 30
0.0
 11
3801.998848863649
 21
762.4860539577895
 31
0.0
 12
3800.332182196982
 22
752.4860539577895
 32
0.0
 13
3800.332182196982
 23
752.4860539577895
 33
0.0
  0
SOLID
  5
12A0
330
1298
100
AcDbEntity
  8
cotas
100
AcDbTrace
 10
3798.665515530315
 20
740.4860539577895
 30
0.0
 11
3801.998848863649
 21
740.4860539577895
 31
0.0
 12
3800.332182196982
 22
750.4860539577895
 32
0.0
 13
3800.332182196982
 23
750.4860539577895
 33
0.0
  0
MTEXT
  5
12A1
330
1298
100
AcDbEntity
  8
cotas
100
AcDbMText
 10
3790.228085487781
 20
722.1012319295832
 30
0.0
 40
10.0
 41
0.0
 71
     5
 72
     1
  1
2
  7
SANINDUSA
 11
0.0000000000000001
 21
1.0
 31
0.0
 73
     1
 44
1.0
1001
ACAD
1000
MTEXTBEGIN
1070
    73
1070
     1
1070
    44
1040
1.0
1070
    74
1070
     0
1000
MTEXTEND
  0
POINT
  5
12A2
330
1298
100
AcDbEntity
  8
Defpoints
 62
     0
100
AcDbPoint
 10
4049.781477025726
 20
752.4860539577893
 30
0.0
  0
POINT
  5
12A3
330
1298
100
AcDbEntity
  8
Defpoints
 62
     0
100
AcDbPoint
 10
4049.781477025726
 20
750.4860539577894
 30
0.0
  0
POINT
  5
12A4
330
1298
100
AcDbEntity
  8
Defpoints
 62
     0
100
AcDbPoint
 10
3800.332182196982
 20
750.4860539577895
 30
0.0
  0
ENDBLK
  5
12A5
330
1298
100
AcDbEntity
  8
0
100
AcDbBlockEnd
  0
BLOCK
  5
12A7
330
12A6
100
AcDbEntity
  8
0
100
AcDbBlockBegin
  2
*D51
 70
     1
 10
0.0
 20
0.0
 30
0.0
  3
*D51
  1

  0
LINE
  5
12A8
330
12A6
100
AcDbEntity
  8
cotas
100
AcDbLine
 10
3945.42898120384
 20
1625.301853478944
 30
0.0
 11
3882.872846312821
 21
1625.788797707455
 31
0.0
  0
MTEXT
  5
12A9
330
12A6
100
AcDbEntity
  8
cotas
100
AcDbMText
 10
3919.283580261782
 20
1635.713875003795
 30
0.0
 40
10.0
 41
0.0
 71
     5
 72
     1
  1
R3026
  7
SANINDUSA
 11
0.9999697051435315
 21
-0.0077838804691768
 31
0.0
 73
     1
 44
1.0
1001
ACAD
1000
MTEXTBEGIN
1070
    73
1070
     1
1070
    44
1040
1.0
1070
    74
1070
     0
1000
MTEXTEND
  0
SOLID
  5
12AA
330
12A6
100
AcDbEntity
  8
cotas
100
AcDbTrace
 10
3882.885819446937
 20
1627.455413882694
 30
0.0
 11
3882.859873178706
 21
1624.122181532215
 31
0.0
 12
3872.873149261386
 22
1625.866636512147
 32
0.0
 13
3872.873149261386
 23
1625.866636512147
 33
0.0
  0
POINT
  5
12AB
330
12A6
100
AcDbEntity
  8
Defpoints
 62
     0
100
AcDbPoint
 10
3872.873149261386
 20
1625.866636512147
 30
0.0
  0
POINT
  5
12AC
330
12A6
100
AcDbEntity
  8
Defpoints
 62
     0
100
AcDbPoint
 10
6898.781477026007
 20
1602.312614212416
 30
0.0
  0
ENDBLK
  5
12AD
330
12A6
100
AcDbEntity
  8
0
100
AcDbBlockEnd
  0
BLOCK
  5
12AF
330
12AE
100
AcDbEntity
  8
0
100
AcDbBlockBegin
  2
*D52
 70
     1
 10
0.0
 20
0.0
 30
0.0
  3
*D52
  1

  0
LINE
  5
12B0
330
12AE
100
AcDbEntity
  8
cotas
100
AcDbLine
 10
4354.200978521149
 20
1574.68808297598
 30
0.0
 11
4416.649556490233
 21
1574.103976081614
 31
0.0
  0
MTEXT
  5
12B1
330
12AE
100
AcDbEntity
  8
cotas
100
AcDbMText
 10
4380.520963406482
 20
1584.650541422104
 30
0.0
 40
10.0
 41
0.0
 71
     5
 72
     1
  1
R3026
  7
SANINDUSA
 11
0.9999562597695017
 21
-0.0093529967277183
 31
0.0
 73
     1
 44
1.0
1001
ACAD
1000
MTEXTBEGIN
1070
    73
1070
     1
1070
    44
1040
1.0
1070
    74
1070
     0
1000
MTEXTEND
  0
SOLID
  5
12B2
330
12AE
100
AcDbEntity
  8
cotas
100
AcDbTrace
 10
4416.665144818114
 20
1575.770569847897
 30
0.0
 11
4416.633968162353
 21
1572.437382315331
 31
0.0
 12
4426.649119087928
 22
1574.010446114337
 32
0.0
 13
4426.649119087928
 23
1574.010446114337
 33
0.0
  0
POINT
  5
12B3
330
12AE
100
AcDbEntity
  8
Defpoints
 62
     0
100
AcDbPoint
 10
4426.649119087928
 20
1574.010446114337
 30
0.0
  0
POINT
  5
12B4
330
12AE
100
AcDbEntity
  8
Defpoints
 62
     0
100
AcDbPoint
 10
1400.781477025715
 20
1602.31261421241
 30
0.0
  0
ENDBLK
  5
12B5
330
12AE
100
AcDbEntity
  8
0
100
AcDbBlockEnd
  0
BLOCK
  5
12B7
330
12B6
100
AcDbEntity
  8
0
100
AcDbBlockBegin
  2
*D53
 70
     1
 10
0.0
 20
0.0
 30
0.0
  3
*D53
  1

  0
LINE
  5
12B8
330
12B6
100
AcDbEntity
  8
cotas
100
AcDbLine
 10
3201.996013001962
 20
1587.864358501429
 30
0.0
 11
3139.545450632368
 21
1587.558857361876
 31
0.0
  0
MTEXT
  5
12B9
330
12B6
100
AcDbEntity
  8
cotas
100
AcDbMText
 10
3175.720735253237
 20
1597.944138354298
 30
0.0
 40
10.0
 41
0.0
 71
     5
 72
     1
  1
R3026
  7
SANINDUSA
 11
0.9999880349319846
 21
0.004891829194475
 31
0.0
 73
     1
 44
1.0
1001
ACAD
1000
MTEXTBEGIN
1070
    73
1070
     1
1070
    44
1040
1.0
1070
    74
1070
     0
1000
MTEXTEND
  0
SOLID
  5
12BA
330
12B6
100
AcDbEntity
  8
cotas
100
AcDbTrace
 10
3139.537297583711
 20
1589.225504086763
 30
0.0
 11
3139.553603681025
 21
1585.892210636989
 31
0.0
 12
3129.545570283048
 22
1587.509939069931
 32
0.0
 13
3129.545570283048
 23
1587.509939069931
 33
0.0
  0
POINT
  5
12BB
330
12B6
100
AcDbEntity
  8
Defpoints
 62
     0
100
AcDbPoint
 10
3129.545570283048
 20
1587.509939069931
 30
0.0
  0
POINT
  5
12BC
330
12B6
100
AcDbEntity
  8
Defpoints
 62
     0
100
AcDbPoint
 10
6155.509363987238
 20
1602.312614212412
 30
0.0
  0
ENDBLK
  5
12BD
330
12B6
100
AcDbEntity
  8
0
100
AcDbBlockEnd
  0
BLOCK
  5
158C
330
158B
100
AcDbEntity
  8
0
100
AcDbBlockBegin
  2
*D55
 70
     1
 10
0.0
 20
0.0
 30
0.0
  3
*D55
  1

  0
LINE
  5
1C2B
330
158B
100
AcDbEntity
  8
cotas
100
AcDbLine
 10
7917.115349769878
 20
2573.010708627645
 30
0.0
 11
7923.647407344471
 21
2578.688939647891
 31
0.0
  0
LINE
  5
1C2C
330
158B
100
AcDbEntity
  8
cotas
100
AcDbLine
 10
7843.605930609432
 20
2573.010708627645
 30
0.0
 11
7837.073873034839
 21
2578.688939647891
 31
0.0
  0
ARC
  5
1C2D
330
158B
100
AcDbEntity
  8
cotas
100
AcDbCircle
 10
7880.360640189654
 20
2541.060327037267
 30
0.0
 40
56.35552892019743
100
AcDbArc
 50
43.03347525235124
 51
136.9665247476488
  0
SOLID
  5
1C2E
330
158B
100
AcDbEntity
  8
cotas
100
AcDbTrace
 10
7921.801652198057
 20
2579.741895154709
 30
0.0
 11
7921.30635264948
 21
2579.29566337455
 31
0.0
 12
7922.892697764247
 22
2578.0328806189
 32
0.0
 13
7922.892697764247
 23
2578.0328806189
 33
0.0
  0
SOLID
  5
1C2F
330
158B
100
AcDbEntity
  8
cotas
100
AcDbTrace
 10
7839.41492772983
 20
2579.29566337455
 30
0.0
 11
7838.919628181253
 21
2579.741895154709
 31
0.0
 12
7837.828582615063
 22
2578.0328806189
 32
0.0
 13
7837.828582615063
 23
2578.0328806189
 33
0.0
  0
MTEXT
  5
1C30
330
158B
100
AcDbEntity
  8
cotas
100
AcDbMText
 10
7880.360640189654
 20
2599.687178993059
 30
0.0
 40
2.0
 41
0.0
 71
     5
 72
     1
  1
98,0\U+00B0
  7
SANINDUSA
 73
     1
 44
1.0
1001
ACAD
1000
MTEXTBEGIN
1070
    73
1070
     1
1070
    44
1040
1.0
1070
    74
1070
     0
1000
MTEXTEND
  0
POINT
  5
1C31
330
158B
100
AcDbEntity
  8
Defpoints
 62
     0
100
AcDbPoint
 10
7896.209226823883
 20
2595.141450745753
 30
0.0
  0
POINT
  5
1C32
330
158B
100
AcDbEntity
  8
Defpoints
 62
     0
100
AcDbPoint
 10
7844.360640189655
 20
2572.354649598654
 30
0.0
  0
POINT
  5
1C33
330
158B
100
AcDbEntity
  8
Defpoints
 62
     0
100
AcDbPoint
 10
7903.860640189655
 20
2561.48856537595
 30
0.0
  0
POINT
  5
1C34
330
158B
100
AcDbEntity
  8
Defpoints
 62
     0
100
AcDbPoint
 10
7916.360640189656
 20
2572.354649598654
 30
0.0
  0
POINT
  5
1C35
330
158B
100
AcDbEntity
  8
Defpoints
 62
     0
100
AcDbPoint
 10
7856.860640189655
 20
2561.48856537595
 30
0.0
  0
ENDBLK
  5
158D
330
158B
100
AcDbEntity
  8
0
100
AcDbBlockEnd
  0
BLOCK
  5
159A
330
1599
100
AcDbEntity
  8
0
100
AcDbBlockBegin
  2
*D56
 70
     1
 10
0.0
 20
0.0
 30
0.0
  3
*D56
  1

  0
LINE
  5
174E
330
1599
100
AcDbEntity
  8
cotas
100
AcDbLine
 10
6417.784949047623
 20
2693.354649598654
 30
0.0
 11
6417.784949047623
 21
2758.354649598654
 31
0.0
  0
LINE
  5
174F
330
1599
100
AcDbEntity
  8
cotas
100
AcDbLine
 10
6967.784949047623
 20
2693.354649598654
 30
0.0
 11
6967.784949047623
 21
2758.354649598654
 31
0.0
  0
LINE
  5
1750
330
1599
100
AcDbEntity
  8
cotas
100
AcDbLine
 10
6419.784949047624
 20
2757.354649598654
 30
0.0
 11
6965.784949047623
 21
2757.354649598654
 31
0.0
  0
SOLID
  5
1751
330
1599
100
AcDbEntity
  8
cotas
100
AcDbTrace
 10
6419.784949047624
 20
2757.687982931988
 30
0.0
 11
6419.784949047624
 21
2757.02131626532
 31
0.0
 12
6417.784949047623
 22
2757.354649598654
 32
0.0
 13
6417.784949047623
 23
2757.354649598654
 33
0.0
  0
SOLID
  5
1752
330
1599
100
AcDbEntity
  8
cotas
100
AcDbTrace
 10
6965.784949047623
 20
2757.687982931988
 30
0.0
 11
6965.784949047623
 21
2757.02131626532
 31
0.0
 12
6967.784949047623
 22
2757.354649598654
 32
0.0
 13
6967.784949047623
 23
2757.354649598654
 33
0.0
  0
MTEXT
  5
1753
330
1599
100
AcDbEntity
  8
cotas
100
AcDbMText
 10
6692.784949047624
 20
2759.395616690662
 30
0.0
 40
2.0
 41
0.0
 71
     5
 72
     1
  1
550
  7
SANINDUSA
 73
     1
 44
1.0
1001
ACAD
1000
MTEXTBEGIN
1070
    73
1070
     1
1070
    44
1040
1.0
1070
    74
1070
     0
1000
MTEXTEND
  0
POINT
  5
1754
330
1599
100
AcDbEntity
  8
Defpoints
 62
     0
100
AcDbPoint
 10
6417.784949047623
 20
2692.354649598654
 30
0.0
  0
POINT
  5
1755
330
1599
100
AcDbEntity
  8
Defpoints
 62
     0
100
AcDbPoint
 10
6967.784949047623
 20
2692.354649598654
 30
0.0
  0
POINT
  5
1756
330
1599
100
AcDbEntity
  8
Defpoints
 62
     0
100
AcDbPoint
 10
6967.784949047623
 20
2757.354649598654
 30
0.0
  0
ENDBLK
  5
159B
330
1599
100
AcDbEntity
  8
0
100
AcDbBlockEnd
  0
BLOCK
  5
15A6
330
15A5
100
AcDbEntity
  8
0
100
AcDbBlockBegin
  2
*D57
 70
     1
 10
0.0
 20
0.0
 30
0.0
  3
*D57
  1

  0
LINE
  5
1757
330
15A5
100
AcDbEntity
  8
cotas
100
AcDbLine
 10
6928.784949047623
 20
2732.354649598654
 30
0.0
 11
6995.782722171161
 21
2732.354649598654
 31
0.0
  0
LINE
  5
1758
330
15A5
100
AcDbEntity
  8
cotas
100
AcDbLine
 10
6928.784949047623
 20
2432.354649598654
 30
0.0
 11
6995.782722171161
 21
2432.354649598654
 31
0.0
  0
LINE
  5
1759
330
15A5
100
AcDbEntity
  8
cotas
100
AcDbLine
 10
6994.782722171162
 20
2730.354649598654
 30
0.0
 11
6994.782722171162
 21
2434.354649598654
 31
0.0
  0
SOLID
  5
175A
330
15A5
100
AcDbEntity
  8
cotas
100
AcDbTrace
 10
6994.449388837828
 20
2730.354649598654
 30
0.0
 11
6995.116055504495
 21
2730.354649598654
 31
0.0
 12
6994.782722171162
 22
2732.354649598654
 32
0.0
 13
6994.782722171162
 23
2732.354649598654
 33
0.0
  0
SOLID
  5
175B
330
15A5
100
AcDbEntity
  8
cotas
100
AcDbTrace
 10
6994.449388837828
 20
2434.354649598654
 30
0.0
 11
6995.116055504495
 21
2434.354649598654
 31
0.0
 12
6994.782722171162
 22
2432.354649598654
 32
0.0
 13
6994.782722171162
 23
2432.354649598654
 33
0.0
  0
MTEXT
  5
175C
330
15A5
100
AcDbEntity
  8
cotas
100
AcDbMText
 10
6992.74108348748
 20
2582.354649598655
 30
0.0
 40
2.0
 41
0.0
 71
     5
 72
     1
  1
300
  7
SANINDUSA
 11
0.0000000000000001
 21
1.0
 31
0.0
 73
     1
 44
1.0
1001
ACAD
1000
MTEXTBEGIN
1070
    73
1070
     1
1070
    44
1040
1.0
1070
    74
1070
     0
1000
MTEXTEND
  0
POINT
  5
175D
330
15A5
100
AcDbEntity
  8
Defpoints
 62
     0
100
AcDbPoint
 10
6927.784949047624
 20
2732.354649598654
 30
0.0
  0
POINT
  5
175E
330
15A5
100
AcDbEntity
  8
Defpoints
 62
     0
100
AcDbPoint
 10
6927.784949047624
 20
2432.354649598654
 30
0.0
  0
POINT
  5
175F
330
15A5
100
AcDbEntity
  8
Defpoints
 62
     0
100
AcDbPoint
 10
6994.782722171162
 20
2432.354649598654
 30
0.0
  0
ENDBLK
  5
15A7
330
15A5
100
AcDbEntity
  8
0
100
AcDbBlockEnd
  0
BLOCK
  5
15B2
330
15B1
100
AcDbEntity
  8
0
100
AcDbBlockBegin
  2
*D58
 70
     1
 10
0.0
 20
0.0
 30
0.0
  3
*D58
  1

  0
LINE
  5
1760
330
15B1
100
AcDbEntity
  8
cotas
100
AcDbLine
 10
5674.512836009119
 20
2693.354649598656
 30
0.0
 11
5674.512836009119
 21
2758.354649598656
 31
0.0
  0
LINE
  5
1761
330
15B1
100
AcDbEntity
  8
cotas
100
AcDbLine
 10
6009.512832432841
 20
2722.08193784481
 30
0.0
 11
6009.512832432841
 21
2758.354649598656
 31
0.0
  0
LINE
  5
1762
330
15B1
100
AcDbEntity
  8
cotas
100
AcDbLine
 10
5676.51283600912
 20
2757.354649598656
 30
0.0
 11
6007.512832432841
 21
2757.354649598656
 31
0.0
  0
SOLID
  5
1763
330
15B1
100
AcDbEntity
  8
cotas
100
AcDbTrace
 10
5676.51283600912
 20
2757.687982931989
 30
0.0
 11
5676.51283600912
 21
2757.021316265322
 31
0.0
 12
5674.512836009119
 22
2757.354649598656
 32
0.0
 13
5674.512836009119
 23
2757.354649598656
 33
0.0
  0
SOLID
  5
1764
330
15B1
100
AcDbEntity
  8
cotas
100
AcDbTrace
 10
6007.512832432841
 20
2757.687982931989
 30
0.0
 11
6007.512832432841
 21
2757.021316265322
 31
0.0
 12
6009.512832432841
 22
2757.354649598656
 32
0.0
 13
6009.512832432841
 23
2757.354649598656
 33
0.0
  0
MTEXT
  5
1765
330
15B1
100
AcDbEntity
  8
cotas
100
AcDbMText
 10
5842.01283422098
 20
2759.396288282336
 30
0.0
 40
2.0
 41
0.0
 71
     5
 72
     1
  1
335
  7
SANINDUSA
 73
     1
 44
1.0
1001
ACAD
1000
MTEXTBEGIN
1070
    73
1070
     1
1070
    44
1040
1.0
1070
    74
1070
     0
1000
MTEXTEND
  0
POINT
  5
1766
330
15B1
100
AcDbEntity
  8
Defpoints
 62
     0
100
AcDbPoint
 10
5674.512836009119
 20
2692.354649598656
 30
0.0
  0
POINT
  5
1767
330
15B1
100
AcDbEntity
  8
Defpoints
 62
     0
100
AcDbPoint
 10
6009.512832432841
 20
2721.08193784481
 30
0.0
  0
POINT
  5
1768
330
15B1
100
AcDbEntity
  8
Defpoints
 62
     0
100
AcDbPoint
 10
6009.512832432841
 20
2757.354649598656
 30
0.0
  0
ENDBLK
  5
15B3
330
15B1
100
AcDbEntity
  8
0
100
AcDbBlockEnd
  0
BLOCK
  5
15BE
330
15BD
100
AcDbEntity
  8
0
100
AcDbBlockBegin
  2
*D59
 70
     1
 10
0.0
 20
0.0
 30
0.0
  3
*D59
  1

  0
LINE
  5
1A87
330
15BD
100
AcDbEntity
  8
cotas
100
AcDbLine
 10
5962.374826950606
 20
2557.245729768669
 30
0.0
 11
5962.374826950606
 21
2368.24572976867
 31
0.0
  0
LINE
  5
1A88
330
15BD
100
AcDbEntity
  8
cotas
100
AcDbLine
 10
6217.334826950612
 20
2593.24572976867
 30
0.0
 11
6217.334826950612
 21
2368.24572976867
 31
0.0
  0
LINE
  5
1A89
330
15BD
100
AcDbEntity
  8
cotas
100
AcDbLine
 10
5964.374826950606
 20
2369.24572976867
 30
0.0
 11
6215.334826950613
 21
2369.24572976867
 31
0.0
  0
SOLID
  5
1A8A
330
15BD
100
AcDbEntity
  8
cotas
100
AcDbTrace
 10
5964.374826950606
 20
2369.579063102003
 30
0.0
 11
5964.374826950606
 21
2368.912396435336
 31
0.0
 12
5962.374826950606
 22
2369.24572976867
 32
0.0
 13
5962.374826950606
 23
2369.24572976867
 33
0.0
  0
SOLID
  5
1A8B
330
15BD
100
AcDbEntity
  8
cotas
100
AcDbTrace
 10
6215.334826950613
 20
2369.579063102003
 30
0.0
 11
6215.334826950613
 21
2368.912396435336
 31
0.0
 12
6217.334826950612
 22
2369.24572976867
 32
0.0
 13
6217.334826950612
 23
2369.24572976867
 33
0.0
  0
MTEXT
  5
1A8C
330
15BD
100
AcDbEntity
  8
cotas
100
AcDbMText
 10
6089.85482695061
 20
2371.28736845235
 30
0.0
 40
2.0
 41
0.0
 71
     5
 72
     1
  1
255
  7
SANINDUSA
 73
     1
 44
1.0
1001
ACAD
1000
MTEXTBEGIN
1070
    73
1070
     1
1070
    44
1040
1.0
1070
    74
1070
     0
1000
MTEXTEND
  0
POINT
  5
1A8D
330
15BD
100
AcDbEntity
  8
Defpoints
 62
     0
100
AcDbPoint
 10
5962.374826950606
 20
2558.245729768669
 30
0.0
  0
POINT
  5
1A8E
330
15BD
100
AcDbEntity
  8
Defpoints
 62
     0
100
AcDbPoint
 10
6217.334826950612
 20
2594.24572976867
 30
0.0
  0
POINT
  5
1A8F
330
15BD
100
AcDbEntity
  8
Defpoints
 62
     0
100
AcDbPoint
 10
6217.334826950612
 20
2369.24572976867
 30
0.0
  0
ENDBLK
  5
15BF
330
15BD
100
AcDbEntity
  8
0
100
AcDbBlockEnd
  0
BLOCK
  5
15CA
330
15C9
100
AcDbEntity
  8
0
100
AcDbBlockBegin
  2
*D60
 70
     1
 10
0.0
 20
0.0
 30
0.0
  3
*D60
  1

  0
LINE
  5
1A99
330
15C9
100
AcDbEntity
  8
cotas
100
AcDbLine
 10
6072.29462779003
 20
2595.24572976867
 30
0.0
 11
6072.29462779003
 21
2780.422563310295
 31
0.0
  0
LINE
  5
1A9A
330
15C9
100
AcDbEntity
  8
cotas
100
AcDbLine
 10
5702.690769646668
 20
2595.24572976867
 30
0.0
 11
5702.690769646668
 21
2780.422563310295
 31
0.0
  0
LINE
  5
1A9B
330
15C9
100
AcDbEntity
  8
cotas
100
AcDbLine
 10
6070.29462779003
 20
2779.422563310295
 30
0.0
 11
5704.690769646669
 21
2779.422563310295
 31
0.0
  0
SOLID
  5
1A9C
330
15C9
100
AcDbEntity
  8
cotas
100
AcDbTrace
 10
6070.29462779003
 20
2779.755896643629
 30
0.0
 11
6070.29462779003
 21
2779.089229976962
 31
0.0
 12
6072.29462779003
 22
2779.422563310295
 32
0.0
 13
6072.29462779003
 23
2779.422563310295
 33
0.0
  0
SOLID
  5
1A9D
330
15C9
100
AcDbEntity
  8
cotas
100
AcDbTrace
 10
5704.690769646669
 20
2779.755896643629
 30
0.0
 11
5704.690769646669
 21
2779.089229976962
 31
0.0
 12
5702.690769646668
 22
2779.422563310295
 32
0.0
 13
5702.690769646668
 23
2779.422563310295
 33
0.0
  0
MTEXT
  5
1A9E
330
15C9
100
AcDbEntity
  8
cotas
100
AcDbMText
 10
5887.49269871835
 20
2781.691871570873
 30
0.0
 40
2.0
 41
0.0
 71
     5
 72
     1
  1
369,6
  7
SANINDUSA
 73
     1
 44
1.0
1001
ACAD
1000
MTEXTBEGIN
1070
    73
1070
     1
1070
    44
1040
1.0
1070
    74
1070
     0
1000
MTEXTEND
  0
POINT
  5
1A9F
330
15C9
100
AcDbEntity
  8
Defpoints
 62
     0
100
AcDbPoint
 10
6072.29462779003
 20
2594.24572976867
 30
0.0
  0
POINT
  5
1AA0
330
15C9
100
AcDbEntity
  8
Defpoints
 62
     0
100
AcDbPoint
 10
5702.690769646668
 20
2594.24572976867
 30
0.0
  0
POINT
  5
1AA1
330
15C9
100
AcDbEntity
  8
Defpoints
 62
     0
100
AcDbPoint
 10
5702.690769646668
 20
2779.422563310295
 30
0.0
  0
ENDBLK
  5
15CB
330
15C9
100
AcDbEntity
  8
0
100
AcDbBlockEnd
  0
BLOCK
  5
15D6
330
15D5
100
AcDbEntity
  8
0
100
AcDbBlockBegin
  2
*D61
 70
     1
 10
0.0
 20
0.0
 30
0.0
  3
*D61
  1

  0
LINE
  5
1AA2
330
15D5
100
AcDbEntity
  8
cotas
100
AcDbLine
 10
5702.690770392003
 20
2595.24572976867
 30
0.0
 11
5702.690770392003
 21
2780.422563310295
 31
0.0
  0
LINE
  5
1AA3
330
15D5
100
AcDbEntity
  8
cotas
100
AcDbLine
 10
5667.334826950612
 20
2595.24572976867
 30
0.0
 11
5667.334826950612
 21
2780.422563310295
 31
0.0
  0
LINE
  5
1AA4
330
15D5
100
AcDbEntity
  8
cotas
100
AcDbLine
 10
5700.690770392004
 20
2779.422563310295
 30
0.0
 11
5669.334826950612
 21
2779.422563310295
 31
0.0
  0
SOLID
  5
1AA5
330
15D5
100
AcDbEntity
  8
cotas
100
AcDbTrace
 10
5700.690770392004
 20
2779.755896643629
 30
0.0
 11
5700.690770392004
 21
2779.089229976962
 31
0.0
 12
5702.690770392003
 22
2779.422563310295
 32
0.0
 13
5702.690770392003
 23
2779.422563310295
 33
0.0
  0
SOLID
  5
1AA6
330
15D5
100
AcDbEntity
  8
cotas
100
AcDbTrace
 10
5669.334826950612
 20
2779.755896643629
 30
0.0
 11
5669.334826950612
 21
2779.089229976962
 31
0.0
 12
5667.334826950612
 22
2779.422563310295
 32
0.0
 13
5667.334826950612
 23
2779.422563310295
 33
0.0
  0
MTEXT
  5
1AA7
330
15D5
100
AcDbEntity
  8
cotas
100
AcDbMText
 10
5685.012798671308
 20
2781.691871570873
 30
0.0
 40
2.0
 41
0.0
 71
     5
 72
     1
  1
35,4
  7
SANINDUSA
 73
     1
 44
1.0
1001
ACAD
1000
MTEXTBEGIN
1070
    73
1070
     1
1070
    44
1040
1.0
1070
    74
1070
     0
1000
MTEXTEND
  0
POINT
  5
1AA8
330
15D5
100
AcDbEntity
  8
Defpoints
 62
     0
100
AcDbPoint
 10
5702.690770392003
 20
2594.24572976867
 30
0.0
  0
POINT
  5
1AA9
330
15D5
100
AcDbEntity
  8
Defpoints
 62
     0
100
AcDbPoint
 10
5667.334826950612
 20
2594.24572976867
 30
0.0
  0
POINT
  5
1AAA
330
15D5
100
AcDbEntity
  8
Defpoints
 62
     0
100
AcDbPoint
 10
5667.334826950612
 20
2779.422563310295
 30
0.0
  0
ENDBLK
  5
15D7
330
15D5
100
AcDbEntity
  8
0
100
AcDbBlockEnd
  0
BLOCK
  5
15E2
330
15E1
100
AcDbEntity
  8
0
100
AcDbBlockBegin
  2
*D62
 70
     1
 10
0.0
 20
0.0
 30
0.0
  3
*D62
  1

  0
LINE
  5
1AAB
330
15E1
100
AcDbEntity
  8
cotas
100
AcDbLine
 10
6127.374826950607
 20
2619.29286268876
 30
0.0
 11
6127.374826950607
 21
2780.422563310295
 31
0.0
  0
LINE
  5
1AAC
330
15E1
100
AcDbEntity
  8
cotas
100
AcDbLine
 10
6217.334826950612
 20
2595.24572976867
 30
0.0
 11
6217.334826950612
 21
2780.422563310295
 31
0.0
  0
LINE
  5
1AAD
330
15E1
100
AcDbEntity
  8
cotas
100
AcDbLine
 10
6129.374826950606
 20
2779.422563310295
 30
0.0
 11
6215.334826950613
 21
2779.422563310295
 31
0.0
  0
SOLID
  5
1AAE
330
15E1
100
AcDbEntity
  8
cotas
100
AcDbTrace
 10
6129.374826950606
 20
2779.755896643629
 30
0.0
 11
6129.374826950606
 21
2779.089229976962
 31
0.0
 12
6127.374826950607
 22
2779.422563310295
 32
0.0
 13
6127.374826950607
 23
2779.422563310295
 33
0.0
  0
SOLID
  5
1AAF
330
15E1
100
AcDbEntity
  8
cotas
100
AcDbTrace
 10
6215.334826950613
 20
2779.755896643629
 30
0.0
 11
6215.334826950613
 21
2779.089229976962
 31
0.0
 12
6217.334826950612
 22
2779.422563310295
 32
0.0
 13
6217.334826950612
 23
2779.422563310295
 33
0.0
  0
MTEXT
  5
1AB0
330
15E1
100
AcDbEntity
  8
cotas
100
AcDbMText
 10
6172.35482695061
 20
2781.463530402303
 30
0.0
 40
2.0
 41
0.0
 71
     5
 72
     1
  1
90
  7
SANINDUSA
 73
     1
 44
1.0
1001
ACAD
1000
MTEXTBEGIN
1070
    73
1070
     1
1070
    44
1040
1.0
1070
    74
1070
     0
1000
MTEXTEND
  0
POINT
  5
1AB1
330
15E1
100
AcDbEntity
  8
Defpoints
 62
     0
100
AcDbPoint
 10
6127.374826950607
 20
2618.29286268876
 30
0.0
  0
POINT
  5
1AB2
330
15E1
100
AcDbEntity
  8
Defpoints
 62
     0
100
AcDbPoint
 10
6217.334826950612
 20
2594.24572976867
 30
0.0
  0
POINT
  5
1AB3
330
15E1
100
AcDbEntity
  8
Defpoints
 62
     0
100
AcDbPoint
 10
6217.334826950612
 20
2779.422563310295
 30
0.0
  0
ENDBLK
  5
15E3
330
15E1
100
AcDbEntity
  8
0
100
AcDbBlockEnd
  0
BLOCK
  5
15EE
330
15ED
100
AcDbEntity
  8
0
100
AcDbBlockBegin
  2
*D63
 70
     1
 10
0.0
 20
0.0
 30
0.0
  3
*D63
  1

  0
LINE
  5
1AB4
330
15ED
100
AcDbEntity
  8
cotas
100
AcDbLine
 10
5962.374826950606
 20
2557.245729768669
 30
0.0
 11
5962.374826950606
 21
2368.24572976867
 31
0.0
  0
LINE
  5
1AB5
330
15ED
100
AcDbEntity
  8
cotas
100
AcDbLine
 10
5667.334826950612
 20
2593.24572976867
 30
0.0
 11
5667.334826950612
 21
2368.24572976867
 31
0.0
  0
LINE
  5
1AB6
330
15ED
100
AcDbEntity
  8
cotas
100
AcDbLine
 10
5960.374826950606
 20
2369.24572976867
 30
0.0
 11
5669.334826950612
 21
2369.24572976867
 31
0.0
  0
SOLID
  5
1AB7
330
15ED
100
AcDbEntity
  8
cotas
100
AcDbTrace
 10
5960.374826950606
 20
2369.579063102003
 30
0.0
 11
5960.374826950606
 21
2368.912396435336
 31
0.0
 12
5962.374826950606
 22
2369.24572976867
 32
0.0
 13
5962.374826950606
 23
2369.24572976867
 33
0.0
  0
SOLID
  5
1AB8
330
15ED
100
AcDbEntity
  8
cotas
100
AcDbTrace
 10
5669.334826950612
 20
2369.579063102003
 30
0.0
 11
5669.334826950612
 21
2368.912396435336
 31
0.0
 12
5667.334826950612
 22
2369.24572976867
 32
0.0
 13
5667.334826950612
 23
2369.24572976867
 33
0.0
  0
MTEXT
  5
1AB9
330
15ED
100
AcDbEntity
  8
cotas
100
AcDbMText
 10
5814.854826950609
 20
2371.28736845235
 30
0.0
 40
2.0
 41
0.0
 71
     5
 72
     1
  1
295
  7
SANINDUSA
 73
     1
 44
1.0
1001
ACAD
1000
MTEXTBEGIN
1070
    73
1070
     1
1070
    44
1040
1.0
1070
    74
1070
     0
1000
MTEXTEND
  0
POINT
  5
1ABA
330
15ED
100
AcDbEntity
  8
Defpoints
 62
     0
100
AcDbPoint
 10
5962.374826950606
 20
2558.245729768669
 30
0.0
  0
POINT
  5
1ABB
330
15ED
100
AcDbEntity
  8
Defpoints
 62
     0
100
AcDbPoint
 10
5667.334826950612
 20
2594.24572976867
 30
0.0
  0
POINT
  5
1ABC
330
15ED
100
AcDbEntity
  8
Defpoints
 62
     0
100
AcDbPoint
 10
5667.334826950612
 20
2369.24572976867
 30
0.0
  0
ENDBLK
  5
15EF
330
15ED
100
AcDbEntity
  8
0
100
AcDbBlockEnd
  0
BLOCK
  5
15FA
330
15F9
100
AcDbEntity
  8
0
100
AcDbBlockBegin
  2
*D64
 70
     1
 10
0.0
 20
0.0
 30
0.0
  3
*D64
  1

  0
LINE
  5
1ABD
330
15F9
100
AcDbEntity
  8
cotas
100
AcDbLine
 10
5922.419756357255
 20
2454.23869582454
 30
0.0
 11
5591.885532121867
 21
2454.23869582454
 31
0.0
  0
LINE
  5
1ABE
330
15F9
100
AcDbEntity
  8
cotas
100
AcDbLine
 10
5841.334826950612
 20
2419.24572976867
 30
0.0
 11
5591.885532121867
 21
2419.24572976867
 31
0.0
  0
LINE
  5
1ABF
330
15F9
100
AcDbEntity
  8
cotas
100
AcDbLine
 10
5592.885532121869
 20
2452.23869582454
 30
0.0
 11
5592.885532121869
 21
2421.24572976867
 31
0.0
  0
SOLID
  5
1AC0
330
15F9
100
AcDbEntity
  8
cotas
100
AcDbTrace
 10
5592.552198788535
 20
2452.23869582454
 30
0.0
 11
5593.218865455201
 21
2452.23869582454
 31
0.0
 12
5592.885532121869
 22
2454.23869582454
 32
0.0
 13
5592.885532121869
 23
2454.23869582454
 33
0.0
  0
SOLID
  5
1AC1
330
15F9
100
AcDbEntity
  8
cotas
100
AcDbTrace
 10
5592.552198788535
 20
2421.24572976867
 30
0.0
 11
5593.218865455201
 21
2421.24572976867
 31
0.0
 12
5592.885532121869
 22
2419.24572976867
 32
0.0
 13
5592.885532121869
 23
2419.24572976867
 33
0.0
  0
MTEXT
  5
1AC2
330
15F9
100
AcDbEntity
  8
cotas
100
AcDbMText
 10
5590.843893438186
 20
2436.742212796606
 30
0.0
 40
2.0
 41
0.0
 71
     5
 72
     1
  1
35
  7
SANINDUSA
 11
0.0000000000000001
 21
1.0
 31
0.0
 73
     1
 44
1.0
1001
ACAD
1000
MTEXTBEGIN
1070
    73
1070
     1
1070
    44
1040
1.0
1070
    74
1070
     0
1000
MTEXTEND
  0
POINT
  5
1AC3
330
15F9
100
AcDbEntity
  8
Defpoints
 62
     0
100
AcDbPoint
 10
5923.419756357255
 20
2454.23869582454
 30
0.0
  0
POINT
  5
1AC4
330
15F9
100
AcDbEntity
  8
Defpoints
 62
     0
100
AcDbPoint
 10
5842.334826950612
 20
2419.24572976867
 30
0.0
  0
POINT
  5
1AC5
330
15F9
100
AcDbEntity
  8
Defpoints
 62
     0
100
AcDbPoint
 10
5592.885532121869
 20
2419.24572976867
 30
0.0
  0
ENDBLK
  5
15FB
330
15F9
100
AcDbEntity
  8
0
100
AcDbBlockEnd
  0
BLOCK
  5
1606
330
1605
100
AcDbEntity
  8
0
100
AcDbBlockBegin
  2
*D65
 70
     1
 10
0.0
 20
0.0
 30
0.0
  3
*D65
  1

  0
LINE
  5
1AC6
330
1605
100
AcDbEntity
  8
cotas
100
AcDbLine
 10
5922.419756357255
 20
2454.23869582454
 30
0.0
 11
5591.885532121869
 21
2454.23869582454
 31
0.0
  0
LINE
  5
1AC7
330
1605
100
AcDbEntity
  8
cotas
100
AcDbLine
 10
5926.928981844964
 20
2734.176067436135
 30
0.0
 11
5591.885532121869
 21
2734.176067436135
 31
0.0
  0
LINE
  5
1AC8
330
1605
100
AcDbEntity
  8
cotas
100
AcDbLine
 10
5592.885532121869
 20
2456.23869582454
 30
0.0
 11
5592.885532121869
 21
2732.176067436135
 31
0.0
  0
SOLID
  5
1AC9
330
1605
100
AcDbEntity
  8
cotas
100
AcDbTrace
 10
5592.552198788536
 20
2456.23869582454
 30
0.0
 11
5593.218865455202
 21
2456.23869582454
 31
0.0
 12
5592.885532121869
 22
2454.23869582454
 32
0.0
 13
5592.885532121869
 23
2454.23869582454
 33
0.0
  0
SOLID
  5
1ACA
330
1605
100
AcDbEntity
  8
cotas
100
AcDbTrace
 10
5592.552198788536
 20
2732.176067436135
 30
0.0
 11
5593.218865455202
 21
2732.176067436135
 31
0.0
 12
5592.885532121869
 22
2734.176067436135
 32
0.0
 13
5592.885532121869
 23
2734.176067436135
 33
0.0
  0
MTEXT
  5
1ACB
330
1605
100
AcDbEntity
  8
cotas
100
AcDbMText
 10
5590.839863888154
 20
2627.895902327699
 30
0.0
 40
2.0
 41
0.0
 71
     5
 72
     1
  1
280
  7
SANINDUSA
 11
0.0000000000000001
 21
1.0
 31
0.0
 73
     1
 44
1.0
1001
ACAD
1000
MTEXTBEGIN
1070
    73
1070
     1
1070
    44
1040
1.0
1070
    74
1070
     0
1000
MTEXTEND
  0
POINT
  5
1ACC
330
1605
100
AcDbEntity
  8
Defpoints
 62
     0
100
AcDbPoint
 10
5923.419756357255
 20
2454.23869582454
 30
0.0
  0
POINT
  5
1ACD
330
1605
100
AcDbEntity
  8
Defpoints
 62
     0
100
AcDbPoint
 10
5927.928981844964
 20
2734.176067436135
 30
0.0
  0
POINT
  5
1ACE
330
1605
100
AcDbEntity
  8
Defpoints
 62
     0
100
AcDbPoint
 10
5592.885532121869
 20
2734.176067436135
 30
0.0
  0
ENDBLK
  5
1607
330
1605
100
AcDbEntity
  8
0
100
AcDbBlockEnd
  0
BLOCK
  5
1612
330
1611
100
AcDbEntity
  8
0
100
AcDbBlockBegin
  2
*D66
 70
     1
 10
0.0
 20
0.0
 30
0.0
  3
*D66
  1

  0
LINE
  5
1ACF
330
1611
100
AcDbEntity
  8
cotas
100
AcDbLine
 10
5926.928981844964
 20
2734.176067436135
 30
0.0
 11
5591.885532121867
 21
2734.176067436135
 31
0.0
  0
LINE
  5
1AD0
330
1611
100
AcDbEntity
  8
cotas
100
AcDbLine
 10
5771.92971826035
 20
2754.422558272278
 30
0.0
 11
5591.885532121867
 21
2754.422558272278
 31
0.0
  0
LINE
  5
1AD1
330
1611
100
AcDbEntity
  8
cotas
100
AcDbLine
 10
5592.885532121869
 20
2736.176067436135
 30
0.0
 11
5592.885532121869
 21
2752.422558272279
 31
0.0
  0
SOLID
  5
1AD2
330
1611
100
AcDbEntity
  8
cotas
100
AcDbTrace
 10
5592.552198788535
 20
2736.176067436135
 30
0.0
 11
5593.218865455201
 21
2736.176067436135
 31
0.0
 12
5592.885532121869
 22
2734.176067436135
 32
0.0
 13
5592.885532121869
 23
2734.176067436135
 33
0.0
  0
SOLID
  5
1AD3
330
1611
100
AcDbEntity
  8
cotas
100
AcDbTrace
 10
5592.552198788535
 20
2752.422558272279
 30
0.0
 11
5593.218865455201
 21
2752.422558272279
 31
0.0
 12
5592.885532121869
 22
2754.422558272278
 32
0.0
 13
5592.885532121869
 23
2754.422558272278
 33
0.0
  0
MTEXT
  5
1AD4
330
1611
100
AcDbEntity
  8
cotas
100
AcDbMText
 10
5590.843893438186
 20
2744.299312854208
 30
0.0
 40
2.0
 41
0.0
 71
     5
 72
     1
  1
20
  7
SANINDUSA
 11
0.0000000000000001
 21
1.0
 31
0.0
 73
     1
 44
1.0
1001
ACAD
1000
MTEXTBEGIN
1070
    73
1070
     1
1070
    44
1040
1.0
1070
    74
1070
     0
1000
MTEXTEND
  0
POINT
  5
1AD5
330
1611
100
AcDbEntity
  8
Defpoints
 62
     0
100
AcDbPoint
 10
5927.928981844964
 20
2734.176067436135
 30
0.0
  0
POINT
  5
1AD6
330
1611
100
AcDbEntity
  8
Defpoints
 62
     0
100
AcDbPoint
 10
5772.92971826035
 20
2754.422558272278
 30
0.0
  0
POINT
  5
1AD7
330
1611
100
AcDbEntity
  8
Defpoints
 62
     0
100
AcDbPoint
 10
5592.885532121869
 20
2754.422558272278
 30
0.0
  0
ENDBLK
  5
1613
330
1611
100
AcDbEntity
  8
0
100
AcDbBlockEnd
  0
BLOCK
  5
161E
330
161D
100
AcDbEntity
  8
0
100
AcDbBlockBegin
  2
*D67
 70
     1
 10
0.0
 20
0.0
 30
0.0
  3
*D67
  1

  0
LINE
  5
1C6C
330
161D
100
AcDbEntity
  8
cotas
100
AcDbLine
 10
8016.370645511919
 20
2732.354650852522
 30
0.0
 11
8081.360640189656
 21
2732.354650852522
 31
0.0
  0
LINE
  5
1C6D
330
161D
100
AcDbEntity
  8
cotas
100
AcDbLine
 10
7916.360640189657
 20
2525.354649598654
 30
0.0
 11
8081.360640189656
 21
2525.354649598654
 31
0.0
  0
LINE
  5
1C6E
330
161D
100
AcDbEntity
  8
cotas
100
AcDbLine
 10
8080.360640189656
 20
2730.354650852522
 30
0.0
 11
8080.360640189656
 21
2527.354649598654
 31
0.0
  0
SOLID
  5
1C6F
330
161D
100
AcDbEntity
  8
cotas
100
AcDbTrace
 10
8080.027306856322
 20
2730.354650852522
 30
0.0
 11
8080.693973522988
 21
2730.354650852522
 31
0.0
 12
8080.360640189656
 22
2732.354650852522
 32
0.0
 13
8080.360640189656
 23
2732.354650852522
 33
0.0
  0
SOLID
  5
1C70
330
161D
100
AcDbEntity
  8
cotas
100
AcDbTrace
 10
8080.027306856322
 20
2527.354649598654
 30
0.0
 11
8080.693973522988
 21
2527.354649598654
 31
0.0
 12
8080.360640189656
 22
2525.354649598654
 32
0.0
 13
8080.360640189656
 23
2525.354649598654
 33
0.0
  0
MTEXT
  5
1C71
330
161D
100
AcDbEntity
  8
cotas
100
AcDbMText
 10
8078.319001505974
 20
2628.854650225589
 30
0.0
 40
2.0
 41
0.0
 71
     5
 72
     1
  1
207
  7
SANINDUSA
 11
0.0000000000000001
 21
1.0
 31
0.0
 73
     1
 44
1.0
1001
ACAD
1000
MTEXTBEGIN
1070
    73
1070
     1
1070
    44
1040
1.0
1070
    74
1070
     0
1000
MTEXTEND
  0
POINT
  5
1C72
330
161D
100
AcDbEntity
  8
Defpoints
 62
     0
100
AcDbPoint
 10
8015.37064551192
 20
2732.354650852522
 30
0.0
  0
POINT
  5
1C73
330
161D
100
AcDbEntity
  8
Defpoints
 62
     0
100
AcDbPoint
 10
7915.360640189657
 20
2525.354649598654
 30
0.0
  0
POINT
  5
1C74
330
161D
100
AcDbEntity
  8
Defpoints
 62
     0
100
AcDbPoint
 10
8080.360640189656
 20
2525.354649598654
 30
0.0
  0
ENDBLK
  5
161F
330
161D
100
AcDbEntity
  8
0
100
AcDbBlockEnd
  0
BLOCK
  5
162A
330
1629
100
AcDbEntity
  8
0
100
AcDbBlockBegin
  2
*D68
 70
     1
 10
0.0
 20
0.0
 30
0.0
  3
*D68
  1

  0
LINE
  5
1C63
330
1629
100
AcDbEntity
  8
cotas
100
AcDbLine
 10
7916.360640189657
 20
2525.354649598654
 30
0.0
 11
8081.360640189656
 21
2525.354649598654
 31
0.0
  0
LINE
  5
1C64
330
1629
100
AcDbEntity
  8
cotas
100
AcDbLine
 10
8031.559324343225
 20
2432.354649598654
 30
0.0
 11
8081.360640189656
 21
2432.354649598654
 31
0.0
  0
LINE
  5
1C65
330
1629
100
AcDbEntity
  8
cotas
100
AcDbLine
 10
8080.360640189656
 20
2523.354649598654
 30
0.0
 11
8080.360640189656
 21
2434.354649598654
 31
0.0
  0
SOLID
  5
1C66
330
1629
100
AcDbEntity
  8
cotas
100
AcDbTrace
 10
8080.027306856322
 20
2523.354649598654
 30
0.0
 11
8080.693973522988
 21
2523.354649598654
 31
0.0
 12
8080.360640189656
 22
2525.354649598654
 32
0.0
 13
8080.360640189656
 23
2525.354649598654
 33
0.0
  0
SOLID
  5
1C67
330
1629
100
AcDbEntity
  8
cotas
100
AcDbTrace
 10
8080.027306856322
 20
2434.354649598654
 30
0.0
 11
8080.693973522988
 21
2434.354649598654
 31
0.0
 12
8080.360640189656
 22
2432.354649598654
 32
0.0
 13
8080.360640189656
 23
2432.354649598654
 33
0.0
  0
MTEXT
  5
1C68
330
1629
100
AcDbEntity
  8
cotas
100
AcDbMText
 10
8078.319001505974
 20
2478.854649598655
 30
0.0
 40
2.0
 41
0.0
 71
     5
 72
     1
  1
93
  7
SANINDUSA
 11
0.0000000000000001
 21
1.0
 31
0.0
 73
     1
 44
1.0
1001
ACAD
1000
MTEXTBEGIN
1070
    73
1070
     1
1070
    44
1040
1.0
1070
    74
1070
     0
1000
MTEXTEND
  0
POINT
  5
1C69
330
1629
100
AcDbEntity
  8
Defpoints
 62
     0
100
AcDbPoint
 10
7915.360640189657
 20
2525.354649598654
 30
0.0
  0
POINT
  5
1C6A
330
1629
100
AcDbEntity
  8
Defpoints
 62
     0
100
AcDbPoint
 10
8030.559324343226
 20
2432.354649598654
 30
0.0
  0
POINT
  5
1C6B
330
1629
100
AcDbEntity
  8
Defpoints
 62
     0
100
AcDbPoint
 10
8080.360640189656
 20
2432.354649598654
 30
0.0
  0
ENDBLK
  5
162B
330
1629
100
AcDbEntity
  8
0
100
AcDbBlockEnd
  0
BLOCK
  5
1636
330
1635
100
AcDbEntity
  8
0
100
AcDbBlockBegin
  2
*D69
 70
     1
 10
0.0
 20
0.0
 30
0.0
  3
*D69
  1

  0
LINE
  5
1C5A
330
1635
100
AcDbEntity
  8
cotas
100
AcDbLine
 10
7845.360640189653
 20
2524.354649598654
 30
0.0
 11
7845.360640189653
 21
2494.895761803324
 31
0.0
  0
LINE
  5
1C5B
330
1635
100
AcDbEntity
  8
cotas
100
AcDbLine
 10
7915.360640189657
 20
2524.354649598654
 30
0.0
 11
7915.360640189657
 21
2494.895761803324
 31
0.0
  0
LINE
  5
1C5C
330
1635
100
AcDbEntity
  8
cotas
100
AcDbLine
 10
7847.360640189653
 20
2495.895761803324
 30
0.0
 11
7913.360640189657
 21
2495.895761803324
 31
0.0
  0
SOLID
  5
1C5D
330
1635
100
AcDbEntity
  8
cotas
100
AcDbTrace
 10
7847.360640189653
 20
2496.229095136657
 30
0.0
 11
7847.360640189653
 21
2495.56242846999
 31
0.0
 12
7845.360640189653
 22
2495.895761803324
 32
0.0
 13
7845.360640189653
 23
2495.895761803324
 33
0.0
  0
SOLID
  5
1C5E
330
1635
100
AcDbEntity
  8
cotas
100
AcDbTrace
 10
7913.360640189657
 20
2496.229095136657
 30
0.0
 11
7913.360640189657
 21
2495.56242846999
 31
0.0
 12
7915.360640189657
 22
2495.895761803324
 32
0.0
 13
7915.360640189657
 23
2495.895761803324
 33
0.0
  0
MTEXT
  5
1C5F
102
{ACAD_XDICTIONARY
360
1D29
102
}
330
1635
100
AcDbEntity
  8
cotas
100
AcDbMText
 10
7880.360640189654
 20
2498.015305120987
 30
0.0
 40
2.0
 41
0.0
 71
     5
 72
     1
  1
\U+00F870
  7
SANINDUSA
 73
     1
 44
1.0
1001
ACAD
1000
MTEXTBEGIN
1070
    73
1070
     1
1070
    44
1040
1.0
1070
    74
1070
     0
1000
MTEXTEND
  0
POINT
  5
1C60
330
1635
100
AcDbEntity
  8
Defpoints
 62
     0
100
AcDbPoint
 10
7845.360640189653
 20
2525.354649598654
 30
0.0
  0
POINT
  5
1C61
330
1635
100
AcDbEntity
  8
Defpoints
 62
     0
100
AcDbPoint
 10
7915.360640189657
 20
2525.354649598654
 30
0.0
  0
POINT
  5
1C62
330
1635
100
AcDbEntity
  8
Defpoints
 62
     0
100
AcDbPoint
 10
7915.360640189657
 20
2495.895761803324
 30
0.0
  0
ENDBLK
  5
1637
330
1635
100
AcDbEntity
  8
0
100
AcDbBlockEnd
  0
BLOCK
  5
1642
330
1641
100
AcDbEntity
  8
0
100
AcDbBlockBegin
  2
*D70
 70
     1
 10
0.0
 20
0.0
 30
0.0
  3
*D70
  1

  0
LINE
  5
17F0
330
1641
100
AcDbEntity
  8
cotas
100
AcDbLine
 10
6458.35191599022
 20
2691.680160517007
 30
0.0
 11
6433.33363536924
 21
2721.443019429245
 31
0.0
  0
MTEXT
  5
17F1
330
1641
100
AcDbEntity
  8
cotas
100
AcDbMText
 10
6457.674895885483
 20
2695.657458504543
 30
0.0
 40
2.0
 41
0.0
 71
     5
 72
     1
  1
R40
  7
SANINDUSA
 11
0.6434556231153668
 21
-0.7654834165945173
 31
0.0
 73
     1
 44
1.0
1001
ACAD
1000
MTEXTBEGIN
1070
    73
1070
     1
1070
    44
1040
1.0
1070
    74
1070
     0
1000
MTEXTEND
  0
SOLID
  5
17F2
330
1641
100
AcDbEntity
  8
cotas
100
AcDbTrace
 10
6433.588796508104
 20
2721.65750463695
 30
0.0
 11
6433.078474230375
 21
2721.22853422154
 31
0.0
 12
6432.046724123009
 22
2722.973986262434
 32
0.0
 13
6432.046724123009
 23
2722.973986262434
 33
0.0
  0
POINT
  5
17F3
330
1641
100
AcDbEntity
  8
Defpoints
 62
     0
100
AcDbPoint
 10
6432.046724123009
 20
2722.973986262434
 30
0.0
  0
POINT
  5
17F4
330
1641
100
AcDbEntity
  8
Defpoints
 62
     0
100
AcDbPoint
 10
6457.784949047624
 20
2692.354649598654
 30
0.0
  0
ENDBLK
  5
1643
330
1641
100
AcDbEntity
  8
0
100
AcDbBlockEnd
  0
BLOCK
  5
164A
330
1649
100
AcDbEntity
  8
0
100
AcDbBlockBegin
  2
*D71
 70
     1
 10
0.0
 20
0.0
 30
0.0
  3
*D71
  1

  0
LINE
  5
17F5
330
1649
100
AcDbEntity
  8
cotas
100
AcDbLine
 10
6927.258764937116
 20
2691.647884208224
 30
0.0
 11
6950.477440923167
 21
2722.834984447182
 31
0.0
  0
MTEXT
  5
17F6
330
1649
100
AcDbEntity
  8
cotas
100
AcDbMText
 10
6927.699943320601
 20
2695.658198053526
 30
0.0
 40
2.0
 41
0.0
 71
     5
 72
     1
  1
R40
  7
SANINDUSA
 11
0.5971708388300831
 21
0.8021140749612706
 31
0.0
 73
     1
 44
1.0
1001
ACAD
1000
MTEXTBEGIN
1070
    73
1070
     1
1070
    44
1040
1.0
1070
    74
1070
     0
1000
MTEXTEND
  0
SOLID
  5
17F7
330
1649
100
AcDbEntity
  8
cotas
100
AcDbTrace
 10
6950.210069564846
 20
2723.034041393459
 30
0.0
 11
6950.744812281488
 21
2722.635927500905
 31
0.0
 12
6951.671782600826
 22
2724.439212597104
 32
0.0
 13
6951.671782600826
 23
2724.439212597104
 33
0.0
  0
POINT
  5
17F8
330
1649
100
AcDbEntity
  8
Defpoints
 62
     0
100
AcDbPoint
 10
6951.671782600826
 20
2724.439212597104
 30
0.0
  0
POINT
  5
17F9
330
1649
100
AcDbEntity
  8
Defpoints
 62
     0
100
AcDbPoint
 10
6927.784949047624
 20
2692.354649598654
 30
0.0
  0
ENDBLK
  5
164B
330
1649
100
AcDbEntity
  8
0
100
AcDbBlockEnd
  0
BLOCK
  5
1652
330
1651
100
AcDbEntity
  8
0
100
AcDbBlockBegin
  2
*D72
 70
     1
 10
0.0
 20
0.0
 30
0.0
  3
*D72
  1

  0
LINE
  5
17FA
330
1651
100
AcDbEntity
  8
cotas
100
AcDbLine
 10
6927.254580445415
 20
2473.058280312208
 30
0.0
 11
6950.657903506483
 21
2442.009502468956
 31
0.0
  0
MTEXT
  5
17FB
330
1651
100
AcDbEntity
  8
cotas
100
AcDbMText
 10
6930.97920227096
 20
2471.507652129647
 30
0.0
 40
2.0
 41
0.0
 71
     5
 72
     1
  1
R40
  7
SANINDUSA
 11
0.6019198541804936
 21
-0.7985565034130856
 31
0.0
 73
     1
 44
1.0
1001
ACAD
1000
MTEXTBEGIN
1070
    73
1070
     1
1070
    44
1040
1.0
1070
    74
1070
     0
1000
MTEXTEND
  0
SOLID
  5
17FC
330
1651
100
AcDbEntity
  8
cotas
100
AcDbTrace
 10
6950.92408900762
 20
2442.210142420349
 30
0.0
 11
6950.391718005345
 21
2441.808862517563
 31
0.0
 12
6951.861743214845
 22
2440.412389462129
 32
0.0
 13
6951.861743214845
 23
2440.412389462129
 33
0.0
  0
POINT
  5
17FD
330
1651
100
AcDbEntity
  8
Defpoints
 62
     0
100
AcDbPoint
 10
6951.861743214845
 20
2440.412389462129
 30
0.0
  0
POINT
  5
17FE
330
1651
100
AcDbEntity
  8
Defpoints
 62
     0
100
AcDbPoint
 10
6927.784949047624
 20
2472.354649598654
 30
0.0
  0
ENDBLK
  5
1653
330
1651
100
AcDbEntity
  8
0
100
AcDbBlockEnd
  0
BLOCK
  5
165A
330
1659
100
AcDbEntity
  8
0
100
AcDbBlockBegin
  2
*D73
 70
     1
 10
0.0
 20
0.0
 30
0.0
  3
*D73
  1

  0
LINE
  5
17FF
330
1659
100
AcDbEntity
  8
cotas
100
AcDbLine
 10
6458.322619400071
 20
2473.052716663747
 30
0.0
 11
6434.597095479003
 21
2442.249443290104
 31
0.0
  0
MTEXT
  5
1800
330
1659
100
AcDbEntity
  8
cotas
100
AcDbMText
 10
6454.582045027227
 20
2471.540976320601
 30
0.0
 40
2.0
 41
0.0
 71
     5
 72
     1
  1
R40
  7
SANINDUSA
 11
0.6102066728583859
 21
0.7922422712776053
 31
0.0
 73
     1
 44
1.0
1001
ACAD
1000
MTEXTBEGIN
1070
    73
1070
     1
1070
    44
1040
1.0
1070
    74
1070
     0
1000
MTEXTEND
  0
SOLID
  5
1801
330
1659
100
AcDbEntity
  8
cotas
100
AcDbTrace
 10
6434.333014721912
 20
2442.45284551439
 30
0.0
 11
6434.861176236096
 21
2442.046041065818
 31
0.0
 12
6433.376682133287
 22
2440.664958747548
 32
0.0
 13
6433.376682133287
 23
2440.664958747548
 33
0.0
  0
POINT
  5
1802
330
1659
100
AcDbEntity
  8
Defpoints
 62
     0
100
AcDbPoint
 10
6433.376682133287
 20
2440.664958747548
 30
0.0
  0
POINT
  5
1803
330
1659
100
AcDbEntity
  8
Defpoints
 62
     0
100
AcDbPoint
 10
6457.784949047622
 20
2472.354649598655
 30
0.0
  0
ENDBLK
  5
165B
330
1659
100
AcDbEntity
  8
0
100
AcDbBlockEnd
  0
BLOCK
  5
1662
330
1661
100
AcDbEntity
  8
0
100
AcDbBlockBegin
  2
*D74
 70
     1
 10
0.0
 20
0.0
 30
0.0
  3
*D74
  1

  0
LINE
  5
1C54
330
1661
100
AcDbEntity
  8
cotas
100
AcDbLine
 10
7745.663960240367
 20
2738.44827704715
 30
0.0
 11
7741.205130283614
 21
2732.797457604215
 31
0.0
  0
MTEXT
  5
1C55
330
1661
100
AcDbEntity
  8
cotas
100
AcDbMText
 10
7742.467562812075
 20
2737.659692245481
 30
0.0
 40
2.0
 41
0.0
 71
     5
 72
     1
  1
R5
  7
SANINDUSA
 11
0.6194437213664675
 21
0.7850410664797494
 31
0.0
 73
     1
 44
1.0
1001
ACAD
1000
MTEXTBEGIN
1070
    73
1070
     1
1070
    44
1040
1.0
1070
    74
1070
     0
1000
MTEXTEND
  0
LINE
  5
1C56
330
1661
100
AcDbEntity
  8
cotas
100
AcDbLine
 10
7736.85845337785
 20
2727.288773350842
 30
0.0
 11
7739.96624284088
 21
2731.227375471256
 31
0.0
  0
SOLID
  5
1C57
330
1661
100
AcDbEntity
  8
cotas
100
AcDbTrace
 10
7740.943449928121
 20
2733.00393884467
 30
0.0
 11
7741.466810639106
 21
2732.59097636376
 31
0.0
 12
7739.96624284088
 22
2731.227375471256
 32
0.0
 13
7739.96624284088
 23
2731.227375471256
 33
0.0
  0
POINT
  5
1C58
330
1661
100
AcDbEntity
  8
Defpoints
 62
     0
100
AcDbPoint
 10
7739.96624284088
 20
2731.227375471256
 30
0.0
  0
POINT
  5
1C59
330
1661
100
AcDbEntity
  8
Defpoints
 62
     0
100
AcDbPoint
 10
7736.85845337785
 20
2727.288773350842
 30
0.0
  0
ENDBLK
  5
1663
330
1661
100
AcDbEntity
  8
0
100
AcDbBlockEnd
  0
BLOCK
  5
166B
330
166A
100
AcDbEntity
  8
0
100
AcDbBlockBegin
  2
*D75
 70
     1
 10
0.0
 20
0.0
 30
0.0
  3
*D75
  1

  0
LINE
  5
1C4E
330
166A
100
AcDbEntity
  8
cotas
100
AcDbLine
 10
7712.840833929913
 20
2728.773808833822
 30
0.0
 11
7719.188087299759
 21
2725.3789156663
 31
0.0
  0
MTEXT
  5
1C4F
330
166A
100
AcDbEntity
  8
cotas
100
AcDbMText
 10
7716.085758737003
 20
2729.329943264831
 30
0.0
 40
2.0
 41
0.0
 71
     5
 72
     1
  1
R5
  7
SANINDUSA
 11
0.881793269984977
 21
-0.4716361192796851
 31
0.0
 73
     1
 44
1.0
1001
ACAD
1000
MTEXTBEGIN
1070
    73
1070
     1
1070
    44
1040
1.0
1070
    74
1070
     0
1000
MTEXTEND
  0
LINE
  5
1C50
330
166A
100
AcDbEntity
  8
cotas
100
AcDbLine
 10
7725.360640189652
 20
2722.077462831343
 30
0.0
 11
7720.951673839728
 21
2724.435643427741
 31
0.0
  0
SOLID
  5
1C51
330
166A
100
AcDbEntity
  8
cotas
100
AcDbTrace
 10
7719.345299339519
 20
2725.672846756295
 30
0.0
 11
7719.030875259999
 21
2725.084984576305
 31
0.0
 12
7720.951673839728
 22
2724.435643427741
 32
0.0
 13
7720.951673839728
 23
2724.435643427741
 33
0.0
  0
POINT
  5
1C52
330
166A
100
AcDbEntity
  8
Defpoints
 62
     0
100
AcDbPoint
 10
7720.951673839728
 20
2724.435643427741
 30
0.0
  0
POINT
  5
1C53
330
166A
100
AcDbEntity
  8
Defpoints
 62
     0
100
AcDbPoint
 10
7725.360640189652
 20
2722.077462831343
 30
0.0
  0
ENDBLK
  5
166C
330
166A
100
AcDbEntity
  8
0
100
AcDbBlockEnd
  0
BLOCK
  5
1674
330
1673
100
AcDbEntity
  8
0
100
AcDbBlockBegin
  2
*D76
 70
     1
 10
0.0
 20
0.0
 30
0.0
  3
*D76
  1

  0
LINE
  5
1C48
330
1673
100
AcDbEntity
  8
cotas
100
AcDbLine
 10
8051.70434215462
 20
2729.077125140696
 30
0.0
 11
8045.314019650447
 21
2722.796033038932
 31
0.0
  0
MTEXT
  5
1C49
330
1673
100
AcDbEntity
  8
cotas
100
AcDbMText
 10
8047.791668633868
 20
2728.093132547295
 30
0.0
 40
2.0
 41
0.0
 71
     5
 72
     1
  1
R40
  7
SANINDUSA
 11
0.7131757014475136
 21
0.7009853200066653
 31
0.0
 73
     1
 44
1.0
1001
ACAD
1000
MTEXTBEGIN
1070
    73
1070
     1
1070
    44
1040
1.0
1070
    74
1070
     0
1000
MTEXTEND
  0
LINE
  5
1C4A
330
1673
100
AcDbEntity
  8
cotas
100
AcDbLine
 10
8015.360640189653
 20
2693.35464959865
 30
0.0
 11
8043.887668247554
 21
2721.394062398918
 31
0.0
  0
SOLID
  5
1C4B
330
1673
100
AcDbEntity
  8
cotas
100
AcDbTrace
 10
8045.080357877115
 20
2723.033758272748
 30
0.0
 11
8045.547681423784
 21
2722.558307805116
 31
0.0
 12
8043.887668247554
 22
2721.394062398918
 32
0.0
 13
8043.887668247554
 23
2721.394062398918
 33
0.0
  0
POINT
  5
1C4C
330
1673
100
AcDbEntity
  8
Defpoints
 62
     0
100
AcDbPoint
 10
8043.887668247554
 20
2721.394062398918
 30
0.0
  0
POINT
  5
1C4D
330
1673
100
AcDbEntity
  8
Defpoints
 62
     0
100
AcDbPoint
 10
8015.360640189653
 20
2693.35464959865
 30
0.0
  0
ENDBLK
  5
1675
330
1673
100
AcDbEntity
  8
0
100
AcDbBlockEnd
  0
BLOCK
  5
167D
330
167C
100
AcDbEntity
  8
0
100
AcDbBlockBegin
  2
*D77
 70
     1
 10
0.0
 20
0.0
 30
0.0
  3
*D77
  1

  0
LINE
  5
1AD8
330
167C
100
AcDbEntity
  8
cotas
100
AcDbLine
 10
6108.232479695896
 20
2615.781653388471
 30
0.0
 11
6114.419995206947
 21
2608.820445357439
 31
0.0
  0
LINE
  5
1AD9
330
167C
100
AcDbEntity
  8
cotas
100
AcDbLine
 10
6140.329658694266
 20
2579.671014179904
 30
0.0
 11
6141.658359385925
 21
2578.176171555415
 31
0.0
  0
MTEXT
  5
1ADA
102
{ACAD_XDICTIONARY
360
1D27
102
}
330
167C
100
AcDbEntity
  8
cotas
100
AcDbMText
 10
6112.291255527049
 20
2614.496745515662
 30
0.0
 40
2.0
 41
0.0
 71
     5
 72
     1
  1
\U+220535
  7
SANINDUSA
 11
0.6643503458287153
 21
-0.7474213122444839
 31
0.0
 73
     1
 44
1.0
1001
ACAD
1000
MTEXTBEGIN
1070
    73
1070
     1
1070
    44
1040
1.0
1070
    74
1070
     0
1000
MTEXTEND
  0
LINE
  5
1ADB
330
167C
100
AcDbEntity
  8
cotas
100
AcDbLine
 10
6139.000958002609
 20
2581.165856804393
 30
0.0
 11
6115.748695898604
 21
2607.32560273295
 31
0.0
  0
SOLID
  5
1ADC
330
167C
100
AcDbEntity
  8
cotas
100
AcDbTrace
 10
6140.578799131681
 20
2579.89246429518
 30
0.0
 11
6140.080518256851
 21
2579.449564064628
 31
0.0
 12
6139.000958002609
 22
2581.165856804393
 32
0.0
 13
6139.000958002609
 23
2581.165856804393
 33
0.0
  0
SOLID
  5
1ADD
330
167C
100
AcDbEntity
  8
cotas
100
AcDbTrace
 10
6114.669135644361
 20
2609.041895472715
 30
0.0
 11
6114.170854769533
 21
2608.598995242163
 31
0.0
 12
6115.748695898604
 22
2607.32560273295
 32
0.0
 13
6115.748695898604
 23
2607.32560273295
 33
0.0
  0
POINT
  5
1ADE
330
167C
100
AcDbEntity
  8
Defpoints
 62
     0
100
AcDbPoint
 10
6115.748695898604
 20
2607.32560273295
 30
0.0
  0
POINT
  5
1ADF
330
167C
100
AcDbEntity
  8
Defpoints
 62
     0
100
AcDbPoint
 10
6139.000958002609
 20
2581.165856804393
 30
0.0
  0
ENDBLK
  5
167E
330
167C
100
AcDbEntity
  8
0
100
AcDbBlockEnd
  0
BLOCK
  5
1688
330
1687
100
AcDbEntity
  8
0
100
AcDbBlockBegin
  2
*D78
 70
     1
 10
0.0
 20
0.0
 30
0.0
  3
*D78
  1

  0
ARC
  5
1C3F
330
1687
100
AcDbEntity
  8
cotas
100
AcDbCircle
 10
8005.560640189656
 20
2433.354649598654
 30
0.0
 40
46.80599785748876
100
AcDbArc
 50
96.44841011177231
 51
177.5515898882278
  0
SOLID
  5
1C40
330
1687
100
AcDbEntity
  8
cotas
100
AcDbTrace
 10
8000.273575689329
 20
2480.196472488888
 30
0.0
 11
8000.334277883565
 21
2479.532575141357
 31
0.0
 12
8002.295618829043
 22
2480.046630397823
 32
0.0
 13
8002.295618829043
 23
2480.046630397823
 33
0.0
  0
SOLID
  5
1C41
330
1687
100
AcDbEntity
  8
cotas
100
AcDbTrace
 10
7959.130629147698
 20
2435.347071498167
 30
0.0
 11
7958.464114649721
 21
2435.361314687014
 31
0.0
 12
7958.754642332166
 22
2433.354649598654
 32
0.0
 13
7958.754642332166
 23
2433.354649598654
 33
0.0
  0
MTEXT
  5
1C42
330
1687
100
AcDbEntity
  8
cotas
100
AcDbMText
 10
7969.667759888948
 20
2466.825301963998
 30
0.0
 40
2.0
 41
0.0
 71
     5
 72
     1
  1
86,0\U+00B0
  7
SANINDUSA
 11
0.6819983600624965
 21
0.7313537016191724
 31
0.0
 73
     1
 44
1.0
1001
ACAD
1000
MTEXTBEGIN
1070
    73
1070
     1
1070
    44
1040
1.0
1070
    74
1070
     0
1000
MTEXTEND
  0
POINT
  5
1C43
330
1687
100
AcDbEntity
  8
Defpoints
 62
     0
100
AcDbPoint
 10
7980.297072049999
 20
2472.757105870923
 30
0.0
  0
POINT
  5
1C44
330
1687
100
AcDbEntity
  8
Defpoints
 62
     0
100
AcDbPoint
 10
7880.360640373655
 20
2433.354649598654
 30
0.0
  0
POINT
  5
1C45
330
1687
100
AcDbEntity
  8
Defpoints
 62
     0
100
AcDbPoint
 10
8005.560640189656
 20
2433.354649598654
 30
0.0
  0
POINT
  5
1C46
330
1687
100
AcDbEntity
  8
Defpoints
 62
     0
100
AcDbPoint
 10
7995.049649429866
 20
2583.668820481793
 30
0.0
  0
POINT
  5
1C47
330
1687
100
AcDbEntity
  8
Defpoints
 62
     0
100
AcDbPoint
 10
8005.560640189656
 20
2433.354649598654
 30
0.0
  0
ENDBLK
  5
1689
330
1687
100
AcDbEntity
  8
0
100
AcDbBlockEnd
  0
BLOCK
  5
1694
330
1693
100
AcDbEntity
  8
0
100
AcDbBlockBegin
  2
*D79
 70
     1
 10
0.0
 20
0.0
 30
0.0
  3
*D79
  1

  0
ARC
  5
1C36
330
1693
100
AcDbEntity
  8
cotas
100
AcDbCircle
 10
7750.360640189658
 20
2433.354649598655
 30
0.0
 40
53.35957525101517
100
AcDbArc
 50
2.147660795537845
 51
85.85233920446198
  0
SOLID
  5
1C37
330
1693
100
AcDbEntity
  8
cotas
100
AcDbTrace
 10
7804.016008675008
 20
2435.360545277305
 30
0.0
 11
7803.349459090887
 21
2435.348051424731
 31
0.0
 12
7803.720215440673
 22
2433.354649598654
 32
0.0
 13
7803.720215440673
 23
2433.354649598654
 33
0.0
  0
SOLID
  5
1C38
330
1693
100
AcDbEntity
  8
cotas
100
AcDbTrace
 10
7754.202110799716
 20
2486.241620422663
 30
0.0
 11
7754.237859286387
 21
2486.90732793362
 31
0.0
 12
7752.222862510177
 22
2486.681719638154
 32
0.0
 13
7752.222862510177
 23
2486.681719638154
 33
0.0
  0
MTEXT
  5
1C39
330
1693
100
AcDbEntity
  8
cotas
100
AcDbMText
 10
7790.378159455807
 20
2471.999118749601
 30
0.0
 40
2.0
 41
0.0
 71
     5
 72
     1
  1
88,0\U+00B0
  7
SANINDUSA
 11
0.6946583704589962
 21
-0.7193398003386522
 31
0.0
 73
     1
 44
1.0
1001
ACAD
1000
MTEXTBEGIN
1070
    73
1070
     1
1070
    44
1040
1.0
1070
    74
1070
     0
1000
MTEXTEND
  0
POINT
  5
1C3A
330
1693
100
AcDbEntity
  8
Defpoints
 62
     0
100
AcDbPoint
 10
7796.878686214971
 20
2459.494956883678
 30
0.0
  0
POINT
  5
1C3B
330
1693
100
AcDbEntity
  8
Defpoints
 62
     0
100
AcDbPoint
 10
7755.021618783285
 20
2566.827613151998
 30
0.0
  0
POINT
  5
1C3C
330
1693
100
AcDbEntity
  8
Defpoints
 62
     0
100
AcDbPoint
 10
7753.327654884663
 20
2433.354649598654
 30
0.0
  0
POINT
  5
1C3D
330
1693
100
AcDbEntity
  8
Defpoints
 62
     0
100
AcDbPoint
 10
7880.360640373656
 20
2433.354649598654
 30
0.0
  0
POINT
  5
1C3E
330
1693
100
AcDbEntity
  8
Defpoints
 62
     0
100
AcDbPoint
 10
7750.360640189658
 20
2433.354649598655
 30
0.0
  0
ENDBLK
  5
1695
330
1693
100
AcDbEntity
  8
0
100
AcDbBlockEnd
  0
BLOCK
  5
16A0
330
169F
100
AcDbEntity
  8
0
100
AcDbBlockBegin
  2
*D80
 70
     1
 10
0.0
 20
0.0
 30
0.0
  3
*D80
  1

  0
LINE
  5
1830
330
169F
100
AcDbEntity
  8
cotas
100
AcDbLine
 10
6007.512836009119
 20
2732.354649598656
 30
0.0
 11
6035.512832432842
 21
2732.354649598656
 31
0.0
  0
LINE
  5
1831
330
169F
100
AcDbEntity
  8
cotas
100
AcDbLine
 10
6010.51283600912
 20
2432.378825391587
 30
0.0
 11
6035.512832432842
 21
2432.378825391587
 31
0.0
  0
LINE
  5
1832
330
169F
100
AcDbEntity
  8
cotas
100
AcDbLine
 10
6034.512832432842
 20
2730.354649598656
 30
0.0
 11
6034.512832432842
 21
2434.378825391588
 31
0.0
  0
SOLID
  5
1833
330
169F
100
AcDbEntity
  8
cotas
100
AcDbTrace
 10
6034.179499099508
 20
2730.354649598656
 30
0.0
 11
6034.846165766174
 21
2730.354649598656
 31
0.0
 12
6034.512832432842
 22
2732.354649598656
 32
0.0
 13
6034.512832432842
 23
2732.354649598656
 33
0.0
  0
SOLID
  5
1834
330
169F
100
AcDbEntity
  8
cotas
100
AcDbTrace
 10
6034.179499099508
 20
2434.378825391588
 30
0.0
 11
6034.846165766174
 21
2434.378825391588
 31
0.0
 12
6034.512832432842
 22
2432.378825391587
 32
0.0
 13
6034.512832432842
 23
2432.378825391587
 33
0.0
  0
MTEXT
  5
1835
330
169F
100
AcDbEntity
  8
cotas
100
AcDbMText
 10
6032.471193749159
 20
2582.366737495123
 30
0.0
 40
2.0
 41
0.0
 71
     5
 72
     1
  1
300
  7
SANINDUSA
 11
0.0000000000000001
 21
1.0
 31
0.0
 73
     1
 44
1.0
1001
ACAD
1000
MTEXTBEGIN
1070
    73
1070
     1
1070
    44
1040
1.0
1070
    74
1070
     0
1000
MTEXTEND
  0
POINT
  5
1836
330
169F
100
AcDbEntity
  8
Defpoints
 62
     0
100
AcDbPoint
 10
6006.512836009119
 20
2732.354649598656
 30
0.0
  0
POINT
  5
1837
330
169F
100
AcDbEntity
  8
Defpoints
 62
     0
100
AcDbPoint
 10
6009.512836009119
 20
2432.378825391587
 30
0.0
  0
POINT
  5
1838
330
169F
100
AcDbEntity
  8
Defpoints
 62
     0
100
AcDbPoint
 10
6034.512832432842
 20
2432.378825391587
 30
0.0
  0
ENDBLK
  5
16A1
330
169F
100
AcDbEntity
  8
0
100
AcDbBlockEnd
  0
BLOCK
  5
16AC
330
16AB
100
AcDbEntity
  8
0
100
AcDbBlockBegin
  2
*D81
 70
     1
 10
0.0
 20
0.0
 30
0.0
  3
*D81
  1

  0
LINE
  5
16AE
330
16AB
100
AcDbEntity
  8
cotas
100
AcDbLine
 10
6967.78494904762
 20
2693.354649598654
 30
0.0
 11
6967.78494904762
 21
2758.354649598654
 31
0.0
  0
LINE
  5
16AF
330
16AB
100
AcDbEntity
  8
cotas
100
AcDbLine
 10
6969.78494904762
 20
2583.354649598654
 30
0.0
 11
6969.78494904762
 21
2758.354649598654
 31
0.0
  0
LINE
  5
16B0
330
16AB
100
AcDbEntity
  8
cotas
100
AcDbLine
 10
6965.784949047621
 20
2757.354649598654
 30
0.0
 11
6963.78494904762
 21
2757.354649598654
 31
0.0
  0
LINE
  5
16B1
330
16AB
100
AcDbEntity
  8
cotas
100
AcDbLine
 10
6971.78494904762
 20
2757.354649598654
 30
0.0
 11
6977.138877858902
 21
2757.354649598654
 31
0.0
  0
LINE
  5
16B2
330
16AB
100
AcDbEntity
  8
cotas
100
AcDbLine
 10
6967.78494904762
 20
2757.354649598654
 30
0.0
 11
6969.78494904762
 21
2757.354649598654
 31
0.0
  0
SOLID
  5
16B3
330
16AB
100
AcDbEntity
  8
cotas
100
AcDbTrace
 10
6965.784949047621
 20
2757.687982931988
 30
0.0
 11
6965.784949047621
 21
2757.02131626532
 31
0.0
 12
6967.78494904762
 22
2757.354649598654
 32
0.0
 13
6967.78494904762
 23
2757.354649598654
 33
0.0
  0
SOLID
  5
16B4
330
16AB
100
AcDbEntity
  8
cotas
100
AcDbTrace
 10
6971.78494904762
 20
2757.687982931988
 30
0.0
 11
6971.78494904762
 21
2757.02131626532
 31
0.0
 12
6969.78494904762
 22
2757.354649598654
 32
0.0
 13
6969.78494904762
 23
2757.354649598654
 33
0.0
  0
MTEXT
  5
16B5
330
16AB
100
AcDbEntity
  8
cotas
100
AcDbMText
 10
6975.461913453262
 20
2759.375468940494
 30
0.0
 40
2.0
 41
0.0
 71
     5
 72
     1
  1
2
  7
SANINDUSA
 73
     1
 44
1.0
1001
ACAD
1000
MTEXTBEGIN
1070
    73
1070
     1
1070
    44
1040
1.0
1070
    74
1070
     0
1000
MTEXTEND
  0
POINT
  5
16B6
330
16AB
100
AcDbEntity
  8
Defpoints
 62
     0
100
AcDbPoint
 10
6967.78494904762
 20
2692.354649598654
 30
0.0
  0
POINT
  5
16B7
330
16AB
100
AcDbEntity
  8
Defpoints
 62
     0
100
AcDbPoint
 10
6969.78494904762
 20
2582.354649598654
 30
0.0
  0
POINT
  5
16B8
330
16AB
100
AcDbEntity
  8
Defpoints
 62
     0
100
AcDbPoint
 10
6969.78494904762
 20
2757.354649598654
 30
0.0
  0
ENDBLK
  5
16AD
330
16AB
100
AcDbEntity
  8
0
100
AcDbBlockEnd
  0
BLOCK
  5
16BA
330
16B9
100
AcDbEntity
  8
0
100
AcDbBlockBegin
  2
*D82
 70
     1
 10
0.0
 20
0.0
 30
0.0
  3
*D82
  1

  0
LINE
  5
16BC
330
16B9
100
AcDbEntity
  8
cotas
100
AcDbLine
 10
6417.784949047623
 20
2693.354649598654
 30
0.0
 11
6417.784949047623
 21
2758.354649598654
 31
0.0
  0
LINE
  5
16BD
330
16B9
100
AcDbEntity
  8
cotas
100
AcDbLine
 10
6415.784949047619
 20
2583.354649598654
 30
0.0
 11
6415.784949047619
 21
2758.354649598654
 31
0.0
  0
LINE
  5
16BE
330
16B9
100
AcDbEntity
  8
cotas
100
AcDbLine
 10
6419.784949047624
 20
2757.354649598654
 30
0.0
 11
6421.784949047624
 21
2757.354649598654
 31
0.0
  0
LINE
  5
16BF
330
16B9
100
AcDbEntity
  8
cotas
100
AcDbLine
 10
6413.78494904762
 20
2757.354649598654
 30
0.0
 11
6408.431020236339
 21
2757.354649598654
 31
0.0
  0
LINE
  5
16C0
330
16B9
100
AcDbEntity
  8
cotas
100
AcDbLine
 10
6417.784949047623
 20
2757.354649598654
 30
0.0
 11
6415.784949047619
 21
2757.354649598654
 31
0.0
  0
SOLID
  5
16C1
330
16B9
100
AcDbEntity
  8
cotas
100
AcDbTrace
 10
6419.784949047624
 20
2757.687982931988
 30
0.0
 11
6419.784949047624
 21
2757.02131626532
 31
0.0
 12
6417.784949047623
 22
2757.354649598654
 32
0.0
 13
6417.784949047623
 23
2757.354649598654
 33
0.0
  0
SOLID
  5
16C2
330
16B9
100
AcDbEntity
  8
cotas
100
AcDbTrace
 10
6413.78494904762
 20
2757.687982931988
 30
0.0
 11
6413.78494904762
 21
2757.02131626532
 31
0.0
 12
6415.784949047619
 22
2757.354649598654
 32
0.0
 13
6415.784949047619
 23
2757.354649598654
 33
0.0
  0
MTEXT
  5
16C3
330
16B9
100
AcDbEntity
  8
cotas
100
AcDbMText
 10
6410.107984641979
 20
2759.375468940494
 30
0.0
 40
2.0
 41
0.0
 71
     5
 72
     1
  1
2
  7
SANINDUSA
 73
     1
 44
1.0
1001
ACAD
1000
MTEXTBEGIN
1070
    73
1070
     1
1070
    44
1040
1.0
1070
    74
1070
     0
1000
MTEXTEND
  0
POINT
  5
16C4
330
16B9
100
AcDbEntity
  8
Defpoints
 62
     0
100
AcDbPoint
 10
6417.784949047623
 20
2692.354649598654
 30
0.0
  0
POINT
  5
16C5
330
16B9
100
AcDbEntity
  8
Defpoints
 62
     0
100
AcDbPoint
 10
6415.784949047619
 20
2582.354649598654
 30
0.0
  0
POINT
  5
16C6
330
16B9
100
AcDbEntity
  8
Defpoints
 62
     0
100
AcDbPoint
 10
6415.784949047619
 20
2757.354649598654
 30
0.0
  0
ENDBLK
  5
16BB
330
16B9
100
AcDbEntity
  8
0
100
AcDbBlockEnd
  0
BLOCK
  5
16D3
330
16D2
100
AcDbEntity
  8
0
100
AcDbBlockBegin
  2
*D83
 70
     1
 10
0.0
 20
0.0
 30
0.0
  3
*D83
  1

  0
LINE
  5
1C22
330
16D2
100
AcDbEntity
  8
cotas
100
AcDbLine
 10
7897.737133307636
 20
2692.354649598657
 30
0.0
 11
7917.220074390144
 21
2692.354649598657
 31
0.0
  0
LINE
  5
1C23
330
16D2
100
AcDbEntity
  8
cotas
100
AcDbLine
 10
7877.07913093758
 20
2732.354649598658
 30
0.0
 11
7917.220074390144
 21
2732.354649598658
 31
0.0
  0
LINE
  5
1C24
330
16D2
100
AcDbEntity
  8
cotas
100
AcDbLine
 10
7916.220074390143
 20
2694.354649598658
 30
0.0
 11
7916.220074390143
 21
2730.354649598658
 31
0.0
  0
SOLID
  5
1C25
330
16D2
100
AcDbEntity
  8
cotas
100
AcDbTrace
 10
7915.886741056811
 20
2694.354649598658
 30
0.0
 11
7916.553407723476
 21
2694.354649598658
 31
0.0
 12
7916.220074390143
 22
2692.354649598657
 32
0.0
 13
7916.220074390143
 23
2692.354649598657
 33
0.0
  0
SOLID
  5
1C26
330
16D2
100
AcDbEntity
  8
cotas
100
AcDbTrace
 10
7915.886741056811
 20
2730.354649598658
 30
0.0
 11
7916.553407723476
 21
2730.354649598658
 31
0.0
 12
7916.220074390143
 22
2732.354649598658
 32
0.0
 13
7916.220074390143
 23
2732.354649598658
 33
0.0
  0
MTEXT
  5
1C27
330
16D2
100
AcDbEntity
  8
cotas
100
AcDbMText
 10
7914.179107298135
 20
2712.354649598659
 30
0.0
 40
2.0
 41
0.0
 71
     5
 72
     1
  1
40
  7
SANINDUSA
 11
0.0000000000000001
 21
1.0
 31
0.0
 73
     1
 44
1.0
1001
ACAD
1000
MTEXTBEGIN
1070
    73
1070
     1
1070
    44
1040
1.0
1070
    74
1070
     0
1000
MTEXTEND
  0
POINT
  5
1C28
330
16D2
100
AcDbEntity
  8
Defpoints
 62
     0
100
AcDbPoint
 10
7896.737133307635
 20
2692.354649598657
 30
0.0
  0
POINT
  5
1C29
330
16D2
100
AcDbEntity
  8
Defpoints
 62
     0
100
AcDbPoint
 10
7876.07913093758
 20
2732.354649598658
 30
0.0
  0
POINT
  5
1C2A
330
16D2
100
AcDbEntity
  8
Defpoints
 62
     0
100
AcDbPoint
 10
7916.220074390143
 20
2732.354649598658
 30
0.0
  0
ENDBLK
  5
16D4
330
16D2
100
AcDbEntity
  8
0
100
AcDbBlockEnd
  0
BLOCK
  5
16DF
330
16DE
100
AcDbEntity
  8
0
100
AcDbBlockBegin
  2
*D84
 70
     1
 10
0.0
 20
0.0
 30
0.0
  3
*D84
  1

  0
LINE
  5
186F
330
16DE
100
AcDbEntity
  8
cotas
100
AcDbLine
 10
6441.586264894057
 20
2435.354649598652
 30
0.0
 11
6393.850232902946
 21
2435.354649598652
 31
0.0
  0
LINE
  5
1870
330
16DE
100
AcDbEntity
  8
cotas
100
AcDbLine
 10
6441.586264894056
 20
2432.354649598654
 30
0.0
 11
6393.850232902946
 21
2432.354649598654
 31
0.0
  0
LINE
  5
1871
330
16DE
100
AcDbEntity
  8
cotas
100
AcDbLine
 10
6394.850232902946
 20
2437.354649598652
 30
0.0
 11
6394.850232902946
 21
2439.354649598652
 31
0.0
  0
LINE
  5
1872
330
16DE
100
AcDbEntity
  8
cotas
100
AcDbLine
 10
6394.850232902946
 20
2430.354649598654
 30
0.0
 11
6394.850232902946
 21
2425.036986737674
 31
0.0
  0
LINE
  5
1873
330
16DE
100
AcDbEntity
  8
cotas
100
AcDbLine
 10
6394.850232902946
 20
2435.354649598652
 30
0.0
 11
6394.850232902946
 21
2432.354649598654
 31
0.0
  0
SOLID
  5
1874
330
16DE
100
AcDbEntity
  8
cotas
100
AcDbTrace
 10
6394.516899569612
 20
2437.354649598652
 30
0.0
 11
6395.183566236279
 21
2437.354649598652
 31
0.0
 12
6394.850232902946
 22
2435.354649598652
 32
0.0
 13
6394.850232902946
 23
2435.354649598652
 33
0.0
  0
SOLID
  5
1875
330
16DE
100
AcDbEntity
  8
cotas
100
AcDbTrace
 10
6394.516899569612
 20
2430.354649598654
 30
0.0
 11
6395.183566236279
 21
2430.354649598654
 31
0.0
 12
6394.850232902946
 22
2432.354649598654
 32
0.0
 13
6394.850232902946
 23
2432.354649598654
 33
0.0
  0
MTEXT
  5
1876
330
16DE
100
AcDbEntity
  8
cotas
100
AcDbMText
 10
6392.808594219264
 20
2426.695818168165
 30
0.0
 40
2.0
 41
0.0
 71
     5
 72
     1
  1
3
  7
SANINDUSA
 11
0.0000000000000001
 21
1.0
 31
0.0
 73
     1
 44
1.0
1001
ACAD
1000
MTEXTBEGIN
1070
    73
1070
     1
1070
    44
1040
1.0
1070
    74
1070
     0
1000
MTEXTEND
  0
POINT
  5
1877
330
16DE
100
AcDbEntity
  8
Defpoints
 62
     0
100
AcDbPoint
 10
6442.586264894058
 20
2435.354649598652
 30
0.0
  0
POINT
  5
1878
330
16DE
100
AcDbEntity
  8
Defpoints
 62
     0
100
AcDbPoint
 10
6442.586264894055
 20
2432.354649598654
 30
0.0
  0
POINT
  5
1879
330
16DE
100
AcDbEntity
  8
Defpoints
 62
     0
100
AcDbPoint
 10
6394.850232902946
 20
2432.354649598654
 30
0.0
  0
ENDBLK
  5
16E0
330
16DE
100
AcDbEntity
  8
0
100
AcDbBlockEnd
  0
BLOCK
  5
16ED
330
16EC
100
AcDbEntity
  8
0
100
AcDbBlockBegin
  2
*D85
 70
     1
 10
0.0
 20
0.0
 30
0.0
  3
*D85
  1

  0
LINE
  5
1B1A
330
16EC
100
AcDbEntity
  8
cotas
100
AcDbLine
 10
5759.810129797321
 20
2518.189371233515
 30
0.0
 11
5715.133147515838
 21
2477.034147514098
 31
0.0
  0
MTEXT
  5
1B1B
330
16EC
100
AcDbEntity
  8
cotas
100
AcDbMText
 10
5755.240828363003
 20
2516.732361401491
 30
0.0
 40
2.0
 41
0.0
 71
     5
 72
     1
  1
R175
  7
SANINDUSA
 11
0.7355010371951862
 21
0.6775235968472283
 31
0.0
 73
     1
 44
1.0
1001
ACAD
1000
MTEXTBEGIN
1070
    73
1070
     1
1070
    44
1040
1.0
1070
    74
1070
     0
1000
MTEXTEND
  0
SOLID
  5
1B1C
330
16EC
100
AcDbEntity
  8
cotas
100
AcDbTrace
 10
5714.907306316889
 20
2477.279314526497
 30
0.0
 11
5715.358988714787
 21
2476.7889805017
 31
0.0
 12
5713.662145441447
 22
2475.679100320404
 32
0.0
 13
5713.662145441447
 23
2475.679100320404
 33
0.0
  0
POINT
  5
1B1D
330
16EC
100
AcDbEntity
  8
Defpoints
 62
     0
100
AcDbPoint
 10
5713.662145441447
 20
2475.679100320404
 30
0.0
  0
POINT
  5
1B1E
330
16EC
100
AcDbEntity
  8
Defpoints
 62
     0
100
AcDbPoint
 10
5842.374826950607
 20
2594.24572976867
 30
0.0
  0
ENDBLK
  5
16EE
330
16EC
100
AcDbEntity
  8
0
100
AcDbBlockEnd
  0
BLOCK
  5
16F5
330
16F4
100
AcDbEntity
  8
0
100
AcDbBlockBegin
  2
*D86
 70
     1
 10
0.0
 20
0.0
 30
0.0
  3
*D86
  1

  0
LINE
  5
1B15
330
16F4
100
AcDbEntity
  8
cotas
100
AcDbLine
 10
5750.856348921509
 20
2656.59127326077
 30
0.0
 11
5692.794995749302
 21
2687.65816222669
 31
0.0
  0
MTEXT
  5
1B16
330
16F4
100
AcDbEntity
  8
cotas
100
AcDbMText
 10
5747.980030903054
 20
2660.445832618314
 30
0.0
 40
2.0
 41
0.0
 71
     5
 72
     1
  1
R200
  7
SANINDUSA
 11
0.8817163191985063
 21
-0.4717799619091911
 31
0.0
 73
     1
 44
1.0
1001
ACAD
1000
MTEXTBEGIN
1070
    73
1070
     1
1070
    44
1040
1.0
1070
    74
1070
     0
1000
MTEXTEND
  0
SOLID
  5
1B17
330
16F4
100
AcDbEntity
  8
cotas
100
AcDbTrace
 10
5692.952255736606
 20
2687.952067666423
 30
0.0
 11
5692.637735761998
 21
2687.364256786957
 31
0.0
 12
5691.031563110904
 22
2688.601722150508
 32
0.0
 13
5691.031563110904
 23
2688.601722150508
 33
0.0
  0
POINT
  5
1B18
330
16F4
100
AcDbEntity
  8
Defpoints
 62
     0
100
AcDbPoint
 10
5691.031563110904
 20
2688.601722150508
 30
0.0
  0
POINT
  5
1B19
330
16F4
100
AcDbEntity
  8
Defpoints
 62
     0
100
AcDbPoint
 10
5867.374826950606
 20
2594.24572976867
 30
0.0
  0
ENDBLK
  5
16F6
330
16F4
100
AcDbEntity
  8
0
100
AcDbBlockEnd
  0
BLOCK
  5
16FD
330
16FC
100
AcDbEntity
  8
0
100
AcDbBlockBegin
  2
*D87
 70
     1
 10
0.0
 20
0.0
 30
0.0
  3
*D87
  1

  0
LINE
  5
1B1F
330
16FC
100
AcDbEntity
  8
cotas
100
AcDbLine
 10
6145.530745070231
 20
2645.825267243278
 30
0.0
 11
6201.056039385522
 21
2668.17280328333
 31
0.0
  0
MTEXT
  5
1B20
330
16FC
100
AcDbEntity
  8
cotas
100
AcDbMText
 10
6148.808148649147
 20
2649.345133570999
 30
0.0
 40
2.0
 41
0.0
 71
     5
 72
     1
  1
R200
  7
SANINDUSA
 11
0.9276828910854014
 21
0.3733690581548385
 31
0.0
 73
     1
 44
1.0
1001
ACAD
1000
MTEXTBEGIN
1070
    73
1070
     1
1070
    44
1040
1.0
1070
    74
1070
     0
1000
MTEXTEND
  0
SOLID
  5
1B21
330
16FC
100
AcDbEntity
  8
cotas
100
AcDbTrace
 10
6200.931583032804
 20
2668.482030913692
 30
0.0
 11
6201.180495738241
 21
2667.863575652968
 31
0.0
 12
6202.911405167693
 22
2668.91954139964
 32
0.0
 13
6202.911405167693
 23
2668.91954139964
 33
0.0
  0
POINT
  5
1B22
330
16FC
100
AcDbEntity
  8
Defpoints
 62
     0
100
AcDbPoint
 10
6202.911405167693
 20
2668.91954139964
 30
0.0
  0
POINT
  5
1B23
330
16FC
100
AcDbEntity
  8
Defpoints
 62
     0
100
AcDbPoint
 10
6017.374826950606
 20
2594.24572976867
 30
0.0
  0
ENDBLK
  5
16FE
330
16FC
100
AcDbEntity
  8
0
100
AcDbBlockEnd
  0
BLOCK
  5
1705
330
1704
100
AcDbEntity
  8
0
100
AcDbBlockBegin
  2
*D88
 70
     1
 10
0.0
 20
0.0
 30
0.0
  3
*D88
  1

  0
LINE
  5
1B24
330
1704
100
AcDbEntity
  8
cotas
100
AcDbLine
 10
6102.820726877969
 20
2505.685115870345
 30
0.0
 11
6139.902206733496
 21
2451.356226330937
 31
0.0
  0
MTEXT
  5
1B25
330
1704
100
AcDbEntity
  8
cotas
100
AcDbMText
 10
6106.943683356796
 20
2503.235090743537
 30
0.0
 40
2.0
 41
0.0
 71
     5
 72
     1
  1
R175
  7
SANINDUSA
 11
0.563742079669906
 21
-0.8259508869233386
 31
0.0
 73
     1
 44
1.0
1001
ACAD
1000
MTEXTBEGIN
1070
    73
1070
     1
1070
    44
1040
1.0
1070
    74
1070
     0
1000
MTEXTEND
  0
SOLID
  5
1B26
330
1704
100
AcDbEntity
  8
cotas
100
AcDbTrace
 10
6140.177523695804
 20
2451.544140357493
 30
0.0
 11
6139.626889771189
 21
2451.16831230438
 31
0.0
 12
6141.029690892836
 22
2449.704324557089
 32
0.0
 13
6141.029690892836
 23
2449.704324557089
 33
0.0
  0
POINT
  5
1B27
330
1704
100
AcDbEntity
  8
Defpoints
 62
     0
100
AcDbPoint
 10
6141.029690892836
 20
2449.704324557089
 30
0.0
  0
POINT
  5
1B28
330
1704
100
AcDbEntity
  8
Defpoints
 62
     0
100
AcDbPoint
 10
6042.374826950606
 20
2594.24572976867
 30
0.0
  0
ENDBLK
  5
1706
330
1704
100
AcDbEntity
  8
0
100
AcDbBlockEnd
  0
BLOCK
  5
170D
330
170C
100
AcDbEntity
  8
0
100
AcDbBlockBegin
  2
*D89
 70
     1
 10
0.0
 20
0.0
 30
0.0
  3
*D89
  1

  0
LINE
  5
1AF4
330
170C
100
AcDbEntity
  8
cotas
100
AcDbLine
 10
6217.334826950612
 20
2593.24572976867
 30
0.0
 11
6217.334826950612
 21
2368.24572976867
 31
0.0
  0
LINE
  5
1AF5
330
170C
100
AcDbEntity
  8
cotas
100
AcDbLine
 10
6219.374826950605
 20
2593.24572976867
 30
0.0
 11
6219.374826950605
 21
2368.24572976867
 31
0.0
  0
LINE
  5
1AF6
330
170C
100
AcDbEntity
  8
cotas
100
AcDbLine
 10
6215.334826950613
 20
2369.24572976867
 30
0.0
 11
6213.334826950612
 21
2369.24572976867
 31
0.0
  0
LINE
  5
1AF7
330
170C
100
AcDbEntity
  8
cotas
100
AcDbLine
 10
6221.374826950606
 20
2369.24572976867
 30
0.0
 11
6226.728755761889
 21
2369.24572976867
 31
0.0
  0
LINE
  5
1AF8
330
170C
100
AcDbEntity
  8
cotas
100
AcDbLine
 10
6217.334826950612
 20
2369.24572976867
 30
0.0
 11
6219.374826950605
 21
2369.24572976867
 31
0.0
  0
SOLID
  5
1AF9
330
170C
100
AcDbEntity
  8
cotas
100
AcDbTrace
 10
6215.334826950613
 20
2369.579063102003
 30
0.0
 11
6215.334826950613
 21
2368.912396435336
 31
0.0
 12
6217.334826950612
 22
2369.24572976867
 32
0.0
 13
6217.334826950612
 23
2369.24572976867
 33
0.0
  0
SOLID
  5
1AFA
330
170C
100
AcDbEntity
  8
cotas
100
AcDbTrace
 10
6221.374826950606
 20
2369.579063102003
 30
0.0
 11
6221.374826950606
 21
2368.912396435336
 31
0.0
 12
6219.374826950605
 22
2369.24572976867
 32
0.0
 13
6219.374826950605
 23
2369.24572976867
 33
0.0
  0
MTEXT
  5
1AFB
330
170C
100
AcDbEntity
  8
cotas
100
AcDbMText
 10
6225.051791356247
 20
2371.26654911051
 30
0.0
 40
2.0
 41
0.0
 71
     5
 72
     1
  1
2
  7
SANINDUSA
 73
     1
 44
1.0
1001
ACAD
1000
MTEXTBEGIN
1070
    73
1070
     1
1070
    44
1040
1.0
1070
    74
1070
     0
1000
MTEXTEND
  0
POINT
  5
1AFC
330
170C
100
AcDbEntity
  8
Defpoints
 62
     0
100
AcDbPoint
 10
6217.334826950612
 20
2594.24572976867
 30
0.0
  0
POINT
  5
1AFD
330
170C
100
AcDbEntity
  8
Defpoints
 62
     0
100
AcDbPoint
 10
6219.374826950605
 20
2594.24572976867
 30
0.0
  0
POINT
  5
1AFE
330
170C
100
AcDbEntity
  8
Defpoints
 62
     0
100
AcDbPoint
 10
6219.374826950605
 20
2369.24572976867
 30
0.0
  0
ENDBLK
  5
170E
330
170C
100
AcDbEntity
  8
0
100
AcDbBlockEnd
  0
BLOCK
  5
171B
330
171A
100
AcDbEntity
  8
0
100
AcDbBlockBegin
  2
*D90
 70
     1
 10
0.0
 20
0.0
 30
0.0
  3
*D90
  1

  0
LINE
  5
1AFF
330
171A
100
AcDbEntity
  8
cotas
100
AcDbLine
 10
5667.334826950612
 20
2593.24572976867
 30
0.0
 11
5667.334826950612
 21
2368.24572976867
 31
0.0
  0
LINE
  5
1B00
330
171A
100
AcDbEntity
  8
cotas
100
AcDbLine
 10
5665.374826950606
 20
2593.24572976867
 30
0.0
 11
5665.374826950606
 21
2368.24572976867
 31
0.0
  0
LINE
  5
1B01
330
171A
100
AcDbEntity
  8
cotas
100
AcDbLine
 10
5669.334826950612
 20
2369.24572976867
 30
0.0
 11
5671.334826950612
 21
2369.24572976867
 31
0.0
  0
LINE
  5
1B02
330
171A
100
AcDbEntity
  8
cotas
100
AcDbLine
 10
5663.374826950605
 20
2369.24572976867
 30
0.0
 11
5658.020898139323
 21
2369.24572976867
 31
0.0
  0
LINE
  5
1B03
330
171A
100
AcDbEntity
  8
cotas
100
AcDbLine
 10
5667.334826950612
 20
2369.24572976867
 30
0.0
 11
5665.374826950606
 21
2369.24572976867
 31
0.0
  0
SOLID
  5
1B04
330
171A
100
AcDbEntity
  8
cotas
100
AcDbTrace
 10
5669.334826950612
 20
2369.579063102003
 30
0.0
 11
5669.334826950612
 21
2368.912396435336
 31
0.0
 12
5667.334826950612
 22
2369.24572976867
 32
0.0
 13
5667.334826950612
 23
2369.24572976867
 33
0.0
  0
SOLID
  5
1B05
330
171A
100
AcDbEntity
  8
cotas
100
AcDbTrace
 10
5663.374826950605
 20
2369.579063102003
 30
0.0
 11
5663.374826950605
 21
2368.912396435336
 31
0.0
 12
5665.374826950606
 22
2369.24572976867
 32
0.0
 13
5665.374826950606
 23
2369.24572976867
 33
0.0
  0
MTEXT
  5
1B06
330
171A
100
AcDbEntity
  8
cotas
100
AcDbMText
 10
5659.697862544965
 20
2371.26654911051
 30
0.0
 40
2.0
 41
0.0
 71
     5
 72
     1
  1
2
  7
SANINDUSA
 73
     1
 44
1.0
1001
ACAD
1000
MTEXTBEGIN
1070
    73
1070
     1
1070
    44
1040
1.0
1070
    74
1070
     0
1000
MTEXTEND
  0
POINT
  5
1B07
330
171A
100
AcDbEntity
  8
Defpoints
 62
     0
100
AcDbPoint
 10
5667.334826950612
 20
2594.24572976867
 30
0.0
  0
POINT
  5
1B08
330
171A
100
AcDbEntity
  8
Defpoints
 62
     0
100
AcDbPoint
 10
5665.374826950606
 20
2594.24572976867
 30
0.0
  0
POINT
  5
1B09
330
171A
100
AcDbEntity
  8
Defpoints
 62
     0
100
AcDbPoint
 10
5665.374826950606
 20
2369.24572976867
 30
0.0
  0
ENDBLK
  5
171C
330
171A
100
AcDbEntity
  8
0
100
AcDbBlockEnd
  0
BLOCK
  5
1729
330
1728
100
AcDbEntity
  8
0
100
AcDbBlockBegin
  2
*D91
 70
     1
 10
0.0
 20
0.0
 30
0.0
  3
*D91
  1

  0
LINE
  5
1B0A
330
1728
100
AcDbEntity
  8
cotas
100
AcDbLine
 10
5841.335026890631
 20
2419.225733767473
 30
0.0
 11
5591.935606958866
 21
2414.237745369636
 31
0.0
  0
LINE
  5
1B0B
330
1728
100
AcDbEntity
  8
cotas
100
AcDbLine
 10
5841.375026890625
 20
2417.225733767473
 30
0.0
 11
5591.97560695886
 21
2412.237745369636
 31
0.0
  0
LINE
  5
1B0C
330
1728
100
AcDbEntity
  8
cotas
100
AcDbLine
 10
5592.895415016453
 20
2416.257341490793
 30
0.0
 11
5592.855423014061
 21
2418.256941610753
 31
0.0
  0
LINE
  5
1B0D
330
1728
100
AcDbEntity
  8
cotas
100
AcDbLine
 10
5593.015399021233
 20
2410.258141250873
 30
0.0
 11
5593.122456188149
 21
2404.905282904223
 31
0.0
  0
LINE
  5
1B0E
330
1728
100
AcDbEntity
  8
cotas
100
AcDbLine
 10
5592.935407018846
 20
2414.257741370832
 30
0.0
 11
5592.97540701884
 21
2412.257741370833
 31
0.0
  0
SOLID
  5
1B0F
330
1728
100
AcDbEntity
  8
cotas
100
AcDbTrace
 10
5593.228681703113
 20
2416.264006824525
 30
0.0
 11
5592.562148329793
 21
2416.250676157061
 31
0.0
 12
5592.935407018846
 22
2414.257741370832
 32
0.0
 13
5592.935407018846
 23
2414.257741370832
 33
0.0
  0
SOLID
  5
1B10
330
1728
100
AcDbEntity
  8
cotas
100
AcDbTrace
 10
5593.348665707893
 20
2410.264806584605
 30
0.0
 11
5592.682132334573
 21
2410.25147591714
 31
0.0
 12
5592.97540701884
 22
2412.257741370833
 32
0.0
 13
5592.97540701884
 23
2412.257741370833
 33
0.0
  0
MTEXT
  5
1B11
330
1728
100
AcDbEntity
  8
cotas
100
AcDbMText
 10
5595.109338905068
 20
2406.622320323545
 30
0.0
 40
2.0
 41
0.0
 71
     5
 72
     1
  1
2
  7
SANINDUSA
 11
0.0199960011964007
 21
-0.9998000599800709
 31
0.0
 73
     1
 44
1.0
1001
ACAD
1000
MTEXTBEGIN
1070
    73
1070
     1
1070
    44
1040
1.0
1070
    74
1070
     0
1000
MTEXTEND
  0
POINT
  5
1B12
330
1728
100
AcDbEntity
  8
Defpoints
 62
     0
100
AcDbPoint
 10
5842.334826950612
 20
2419.24572976867
 30
0.0
  0
POINT
  5
1B13
330
1728
100
AcDbEntity
  8
Defpoints
 62
     0
100
AcDbPoint
 10
5842.374826950605
 20
2417.245729768669
 30
0.0
  0
POINT
  5
1B14
330
1728
100
AcDbEntity
  8
Defpoints
 62
     0
100
AcDbPoint
 10
5592.97540701884
 20
2412.257741370833
 30
0.0
  0
ENDBLK
  5
172A
330
1728
100
AcDbEntity
  8
0
100
AcDbBlockEnd
  0
BLOCK
  5
1737
330
1736
100
AcDbEntity
  8
0
100
AcDbBlockBegin
  2
*D92
 70
     1
 10
0.0
 20
0.0
 30
0.0
  3
*D92
  1

  0
LINE
  5
186A
330
1736
100
AcDbEntity
  8
cotas
100
AcDbLine
 10
6467.452564985918
 20
2605.507198754945
 30
0.0
 11
6417.876560693295
 21
2605.893104137447
 31
0.0
  0
MTEXT
  5
186B
330
1736
100
AcDbEntity
  8
cotas
100
AcDbMText
 10
6462.223484797506
 20
2607.589603059916
 30
0.0
 40
2.0
 41
0.0
 71
     5
 72
     1
  1
R3026
  7
SANINDUSA
 11
0.9999697051435315
 21
-0.0077838804691768
 31
0.0
 73
     1
 44
1.0
1001
ACAD
1000
MTEXTBEGIN
1070
    73
1070
     1
1070
    44
1040
1.0
1070
    74
1070
     0
1000
MTEXTEND
  0
SOLID
  5
186C
330
1736
100
AcDbEntity
  8
cotas
100
AcDbTrace
 10
6417.879155320119
 20
2606.226427372494
 30
0.0
 11
6417.873966066473
 21
2605.559780902398
 31
0.0
 12
6415.876621283008
 22
2605.908671898385
 32
0.0
 13
6415.876621283008
 23
2605.908671898385
 33
0.0
  0
POINT
  5
186D
330
1736
100
AcDbEntity
  8
Defpoints
 62
     0
100
AcDbPoint
 10
6415.876621283008
 20
2605.908671898385
 30
0.0
  0
POINT
  5
186E
330
1736
100
AcDbEntity
  8
Defpoints
 62
     0
100
AcDbPoint
 10
9441.784949047631
 20
2582.354649598654
 30
0.0
  0
ENDBLK
  5
1738
330
1736
100
AcDbEntity
  8
0
100
AcDbBlockEnd
  0
BLOCK
  5
173F
330
173E
100
AcDbEntity
  8
0
100
AcDbBlockBegin
  2
*D93
 70
     1
 10
0.0
 20
0.0
 30
0.0
  3
*D93
  1

  0
LINE
  5
1865
330
173E
100
AcDbEntity
  8
cotas
100
AcDbLine
 10
6918.184056691599
 20
2554.533887591388
 30
0.0
 11
6967.652678590282
 21
2554.071187494037
 31
0.0
  0
MTEXT
  5
1866
330
173E
100
AcDbEntity
  8
cotas
100
AcDbMText
 10
6923.448053668666
 20
2556.526379280613
 30
0.0
 40
2.0
 41
0.0
 71
     5
 72
     1
  1
R3026
  7
SANINDUSA
 11
0.9999562597695017
 21
-0.0093529967277183
 31
0.0
 73
     1
 44
1.0
1001
ACAD
1000
MTEXTBEGIN
1070
    73
1070
     1
1070
    44
1040
1.0
1070
    74
1070
     0
1000
MTEXTEND
  0
SOLID
  5
1867
330
173E
100
AcDbEntity
  8
cotas
100
AcDbTrace
 10
6967.655796255859
 20
2554.404506247293
 30
0.0
 11
6967.649560924705
 21
2553.73786874078
 31
0.0
 12
6969.65259110982
 22
2554.052481500581
 32
0.0
 13
6969.65259110982
 23
2554.052481500581
 33
0.0
  0
POINT
  5
1868
330
173E
100
AcDbEntity
  8
Defpoints
 62
     0
100
AcDbPoint
 10
6969.65259110982
 20
2554.052481500581
 30
0.0
  0
POINT
  5
1869
330
173E
100
AcDbEntity
  8
Defpoints
 62
     0
100
AcDbPoint
 10
3943.78494904761
 20
2582.354649598654
 30
0.0
  0
ENDBLK
  5
1740
330
173E
100
AcDbEntity
  8
0
100
AcDbBlockEnd
  0
BLOCK
  5
1747
330
1746
100
AcDbEntity
  8
0
100
AcDbBlockBegin
  2
*D94
 70
     1
 10
0.0
 20
0.0
 30
0.0
  3
*D94
  1

  0
LINE
  5
1899
330
1746
100
AcDbEntity
  8
cotas
100
AcDbLine
 10
5724.01921221575
 20
2567.80376074863
 30
0.0
 11
5674.549018374809
 21
2567.561758114564
 31
0.0
  0
MTEXT
  5
189A
330
1746
100
AcDbEntity
  8
cotas
100
AcDbMText
 10
5718.764156666006
 20
2569.819716719204
 30
0.0
 40
2.0
 41
0.0
 71
     5
 72
     1
  1
R3026
  7
SANINDUSA
 11
0.9999880349319846
 21
0.004891829194475
 31
0.0
 73
     1
 44
1.0
1001
ACAD
1000
MTEXTBEGIN
1070
    73
1070
     1
1070
    44
1040
1.0
1070
    74
1070
     0
1000
MTEXTEND
  0
SOLID
  5
189B
330
1746
100
AcDbEntity
  8
cotas
100
AcDbTrace
 10
5674.547387765077
 20
2567.895087459542
 30
0.0
 11
5674.55064898454
 21
2567.228428769587
 31
0.0
 12
5672.549042304945
 22
2567.551974456176
 32
0.0
 13
5672.549042304945
 23
2567.551974456176
 33
0.0
  0
POINT
  5
189C
330
1746
100
AcDbEntity
  8
Defpoints
 62
     0
100
AcDbPoint
 10
5672.549042304945
 20
2567.551974456176
 30
0.0
  0
POINT
  5
189D
330
1746
100
AcDbEntity
  8
Defpoints
 62
     0
100
AcDbPoint
 10
8698.512836009134
 20
2582.354649598656
 30
0.0
  0
ENDBLK
  5
1748
330
1746
100
AcDbEntity
  8
0
100
AcDbBlockEnd
  0
BLOCK
  5
176A
330
1769
100
AcDbEntity
  8
0
100
AcDbBlockBegin
  2
*D95
 70
     1
 10
0.0
 20
0.0
 30
0.0
  3
*D95
  1

  0
LINE
  5
1A75
330
1769
100
AcDbEntity
  8
cotas
100
AcDbLine
 10
6217.334826950612
 20
2593.24572976867
 30
0.0
 11
6217.334826950612
 21
2393.24572976867
 31
0.0
  0
LINE
  5
1A76
330
1769
100
AcDbEntity
  8
cotas
100
AcDbLine
 10
6127.374826950606
 20
2569.198596848579
 30
0.0
 11
6127.374826950606
 21
2393.24572976867
 31
0.0
  0
LINE
  5
1A77
330
1769
100
AcDbEntity
  8
cotas
100
AcDbLine
 10
6215.334826950613
 20
2394.24572976867
 30
0.0
 11
6129.374826950606
 21
2394.24572976867
 31
0.0
  0
SOLID
  5
1A78
330
1769
100
AcDbEntity
  8
cotas
100
AcDbTrace
 10
6215.334826950613
 20
2394.579063102003
 30
0.0
 11
6215.334826950613
 21
2393.912396435336
 31
0.0
 12
6217.334826950612
 22
2394.24572976867
 32
0.0
 13
6217.334826950612
 23
2394.24572976867
 33
0.0
  0
SOLID
  5
1A79
330
1769
100
AcDbEntity
  8
cotas
100
AcDbTrace
 10
6129.374826950606
 20
2394.579063102003
 30
0.0
 11
6129.374826950606
 21
2393.912396435336
 31
0.0
 12
6127.374826950606
 22
2394.24572976867
 32
0.0
 13
6127.374826950606
 23
2394.24572976867
 33
0.0
  0
MTEXT
  5
1A7A
330
1769
100
AcDbEntity
  8
cotas
100
AcDbMText
 10
6172.354826950609
 20
2396.286696860678
 30
0.0
 40
2.0
 41
0.0
 71
     5
 72
     1
  1
90
  7
SANINDUSA
 73
     1
 44
1.0
1001
ACAD
1000
MTEXTBEGIN
1070
    73
1070
     1
1070
    44
1040
1.0
1070
    74
1070
     0
1000
MTEXTEND
  0
POINT
  5
1A7B
330
1769
100
AcDbEntity
  8
Defpoints
 62
     0
100
AcDbPoint
 10
6217.334826950612
 20
2594.24572976867
 30
0.0
  0
POINT
  5
1A7C
330
1769
100
AcDbEntity
  8
Defpoints
 62
     0
100
AcDbPoint
 10
6127.374826950606
 20
2570.19859684858
 30
0.0
  0
POINT
  5
1A7D
330
1769
100
AcDbEntity
  8
Defpoints
 62
     0
100
AcDbPoint
 10
6127.374826950606
 20
2394.24572976867
 30
0.0
  0
ENDBLK
  5
176B
330
1769
100
AcDbEntity
  8
0
100
AcDbBlockEnd
  0
BLOCK
  5
1776
330
1775
100
AcDbEntity
  8
0
100
AcDbBlockBegin
  2
*D96
 70
     1
 10
0.0
 20
0.0
 30
0.0
  3
*D96
  1

  0
LINE
  5
1A7E
330
1775
100
AcDbEntity
  8
cotas
100
AcDbLine
 10
6127.374826950606
 20
2569.198596848579
 30
0.0
 11
6127.374826950606
 21
2393.24572976867
 31
0.0
  0
LINE
  5
1A7F
330
1775
100
AcDbEntity
  8
cotas
100
AcDbLine
 10
5962.374826950606
 20
2573.334146539483
 30
0.0
 11
5962.374826950606
 21
2393.24572976867
 31
0.0
  0
LINE
  5
1A80
330
1775
100
AcDbEntity
  8
cotas
100
AcDbLine
 10
6125.374826950606
 20
2394.24572976867
 30
0.0
 11
5964.374826950606
 21
2394.24572976867
 31
0.0
  0
SOLID
  5
1A81
330
1775
100
AcDbEntity
  8
cotas
100
AcDbTrace
 10
6125.374826950606
 20
2394.579063102003
 30
0.0
 11
6125.374826950606
 21
2393.912396435336
 31
0.0
 12
6127.374826950606
 22
2394.24572976867
 32
0.0
 13
6127.374826950606
 23
2394.24572976867
 33
0.0
  0
SOLID
  5
1A82
330
1775
100
AcDbEntity
  8
cotas
100
AcDbTrace
 10
5964.374826950606
 20
2394.579063102003
 30
0.0
 11
5964.374826950606
 21
2393.912396435336
 31
0.0
 12
5962.374826950606
 22
2394.24572976867
 32
0.0
 13
5962.374826950606
 23
2394.24572976867
 33
0.0
  0
MTEXT
  5
1A83
330
1775
100
AcDbEntity
  8
cotas
100
AcDbMText
 10
6044.874826950606
 20
2396.285353677333
 30
0.0
 40
2.0
 41
0.0
 71
     5
 72
     1
  1
165
  7
SANINDUSA
 73
     1
 44
1.0
1001
ACAD
1000
MTEXTBEGIN
1070
    73
1070
     1
1070
    44
1040
1.0
1070
    74
1070
     0
1000
MTEXTEND
  0
POINT
  5
1A84
330
1775
100
AcDbEntity
  8
Defpoints
 62
     0
100
AcDbPoint
 10
6127.374826950606
 20
2570.19859684858
 30
0.0
  0
POINT
  5
1A85
330
1775
100
AcDbEntity
  8
Defpoints
 62
     0
100
AcDbPoint
 10
5962.374826950606
 20
2574.334146539483
 30
0.0
  0
POINT
  5
1A86
330
1775
100
AcDbEntity
  8
Defpoints
 62
     0
100
AcDbPoint
 10
5962.374826950606
 20
2394.24572976867
 30
0.0
  0
ENDBLK
  5
1777
330
1775
100
AcDbEntity
  8
0
100
AcDbBlockEnd
  0
BLOCK
  5
178B
330
178A
100
AcDbEntity
  8
0
100
AcDbBlockBegin
  2
*D97
 70
     1
 10
0.0
 20
0.0
 30
0.0
  3
*D97
  1

  0
LINE
  5
1A90
330
178A
100
AcDbEntity
  8
cotas
100
AcDbLine
 10
6127.374826950607
 20
2619.29286268876
 30
0.0
 11
6127.374826950607
 21
2780.422563310295
 31
0.0
  0
LINE
  5
1A91
330
178A
100
AcDbEntity
  8
cotas
100
AcDbLine
 10
6072.29462779003
 20
2595.24572976867
 30
0.0
 11
6072.29462779003
 21
2780.422563310295
 31
0.0
  0
LINE
  5
1A92
330
178A
100
AcDbEntity
  8
cotas
100
AcDbLine
 10
6125.374826950607
 20
2779.422563310295
 30
0.0
 11
6074.29462779003
 21
2779.422563310295
 31
0.0
  0
SOLID
  5
1A93
330
178A
100
AcDbEntity
  8
cotas
100
AcDbTrace
 10
6125.374826950607
 20
2779.755896643629
 30
0.0
 11
6125.374826950607
 21
2779.089229976962
 31
0.0
 12
6127.374826950607
 22
2779.422563310295
 32
0.0
 13
6127.374826950607
 23
2779.422563310295
 33
0.0
  0
SOLID
  5
1A94
330
178A
100
AcDbEntity
  8
cotas
100
AcDbTrace
 10
6074.29462779003
 20
2779.755896643629
 30
0.0
 11
6074.29462779003
 21
2779.089229976962
 31
0.0
 12
6072.29462779003
 22
2779.422563310295
 32
0.0
 13
6072.29462779003
 23
2779.422563310295
 33
0.0
  0
MTEXT
  5
1A95
330
178A
100
AcDbEntity
  8
cotas
100
AcDbMText
 10
6099.834727370319
 20
2781.674410187394
 30
0.0
 40
2.0
 41
0.0
 71
     5
 72
     1
  1
55,1
  7
SANINDUSA
 73
     1
 44
1.0
1001
ACAD
1000
MTEXTBEGIN
1070
    73
1070
     1
1070
    44
1040
1.0
1070
    74
1070
     0
1000
MTEXTEND
  0
POINT
  5
1A96
330
178A
100
AcDbEntity
  8
Defpoints
 62
     0
100
AcDbPoint
 10
6127.374826950607
 20
2618.29286268876
 30
0.0
  0
POINT
  5
1A97
330
178A
100
AcDbEntity
  8
Defpoints
 62
     0
100
AcDbPoint
 10
6072.29462779003
 20
2594.24572976867
 30
0.0
  0
POINT
  5
1A98
330
178A
100
AcDbEntity
  8
Defpoints
 62
     0
100
AcDbPoint
 10
6072.29462779003
 20
2779.422563310295
 30
0.0
  0
ENDBLK
  5
178C
330
178A
100
AcDbEntity
  8
0
100
AcDbBlockEnd
  0
BLOCK
  5
183A
330
1839
100
AcDbEntity
  8
0
100
AcDbBlockBegin
  2
*D98
 70
     1
 10
0.0
 20
0.0
 30
0.0
  3
*D98
  1

  0
LINE
  5
183C
330
1839
100
AcDbEntity
  8
cotas
100
AcDbLine
 10
5674.512836009119
 20
2693.354649598656
 30
0.0
 11
5674.512836009119
 21
2758.354649598656
 31
0.0
  0
LINE
  5
183D
330
1839
100
AcDbEntity
  8
cotas
100
AcDbLine
 10
5672.512836009122
 20
2583.354649598657
 30
0.0
 11
5672.512836009122
 21
2758.354649598656
 31
0.0
  0
LINE
  5
183E
330
1839
100
AcDbEntity
  8
cotas
100
AcDbLine
 10
5676.51283600912
 20
2757.354649598656
 30
0.0
 11
5678.512836009119
 21
2757.354649598656
 31
0.0
  0
LINE
  5
183F
330
1839
100
AcDbEntity
  8
cotas
100
AcDbLine
 10
5670.512836009122
 20
2757.354649598656
 30
0.0
 11
5665.15890719784
 21
2757.354649598656
 31
0.0
  0
LINE
  5
1840
330
1839
100
AcDbEntity
  8
cotas
100
AcDbLine
 10
5674.512836009119
 20
2757.354649598656
 30
0.0
 11
5672.512836009122
 21
2757.354649598656
 31
0.0
  0
SOLID
  5
1841
330
1839
100
AcDbEntity
  8
cotas
100
AcDbTrace
 10
5676.51283600912
 20
2757.687982931989
 30
0.0
 11
5676.51283600912
 21
2757.021316265322
 31
0.0
 12
5674.512836009119
 22
2757.354649598656
 32
0.0
 13
5674.512836009119
 23
2757.354649598656
 33
0.0
  0
SOLID
  5
1842
330
1839
100
AcDbEntity
  8
cotas
100
AcDbTrace
 10
5670.512836009122
 20
2757.687982931989
 30
0.0
 11
5670.512836009122
 21
2757.021316265322
 31
0.0
 12
5672.512836009122
 22
2757.354649598656
 32
0.0
 13
5672.512836009122
 23
2757.354649598656
 33
0.0
  0
MTEXT
  5
1843
330
1839
100
AcDbEntity
  8
cotas
100
AcDbMText
 10
5666.835871603481
 20
2759.375468940496
 30
0.0
 40
2.0
 41
0.0
 71
     5
 72
     1
  1
2
  7
SANINDUSA
 73
     1
 44
1.0
1001
ACAD
1000
MTEXTBEGIN
1070
    73
1070
     1
1070
    44
1040
1.0
1070
    74
1070
     0
1000
MTEXTEND
  0
POINT
  5
1844
330
1839
100
AcDbEntity
  8
Defpoints
 62
     0
100
AcDbPoint
 10
5674.512836009119
 20
2692.354649598656
 30
0.0
  0
POINT
  5
1845
330
1839
100
AcDbEntity
  8
Defpoints
 62
     0
100
AcDbPoint
 10
5672.512836009122
 20
2582.354649598657
 30
0.0
  0
POINT
  5
1846
330
1839
100
AcDbEntity
  8
Defpoints
 62
     0
100
AcDbPoint
 10
5672.512836009122
 20
2757.354649598656
 30
0.0
  0
ENDBLK
  5
183B
330
1839
100
AcDbEntity
  8
0
100
AcDbBlockEnd
  0
BLOCK
  5
1848
330
1847
100
AcDbEntity
  8
0
100
AcDbBlockBegin
  2
*D99
 70
     1
 10
0.0
 20
0.0
 30
0.0
  3
*D99
  1

  0
LINE
  5
189E
330
1847
100
AcDbEntity
  8
cotas
100
AcDbLine
 10
5726.995858280701
 20
2481.824172922013
 30
0.0
 11
5684.238152405519
 21
2449.388510769903
 31
0.0
  0
MTEXT
  5
189F
330
1847
100
AcDbEntity
  8
cotas
100
AcDbMText
 10
5722.989681292711
 20
2481.346887425933
 30
0.0
 40
2.0
 41
0.0
 71
     5
 72
     1
  1
R40
  7
SANINDUSA
 11
0.7967022000948323
 21
0.6043720744409472
 31
0.0
 73
     1
 44
1.0
1001
ACAD
1000
MTEXTBEGIN
1070
    73
1070
     1
1070
    44
1040
1.0
1070
    74
1070
     0
1000
MTEXTEND
  0
SOLID
  5
18A0
330
1847
100
AcDbEntity
  8
cotas
100
AcDbTrace
 10
5684.036695047374
 20
2449.654078169935
 30
0.0
 11
5684.439609763668
 21
2449.122943369872
 31
0.0
 12
5682.64474800533
 22
2448.179766621021
 32
0.0
 13
5682.64474800533
 23
2448.179766621021
 33
0.0
  0
POINT
  5
18A1
330
1847
100
AcDbEntity
  8
Defpoints
 62
     0
100
AcDbPoint
 10
5682.64474800533
 20
2448.179766621021
 30
0.0
  0
POINT
  5
18A2
330
1847
100
AcDbEntity
  8
Defpoints
 62
     0
100
AcDbPoint
 10
5714.512836009118
 20
2472.354649598656
 30
0.0
  0
ENDBLK
  5
1849
330
1847
100
AcDbEntity
  8
0
100
AcDbBlockEnd
  0
BLOCK
  5
1850
330
184F
100
AcDbEntity
  8
0
100
AcDbBlockBegin
  2
*D100
 70
     1
 10
0.0
 20
0.0
 30
0.0
  3
*D100
  1

  0
LINE
  5
18A3
330
184F
100
AcDbEntity
  8
cotas
100
AcDbLine
 10
5738.059756421716
 20
2669.952136827721
 30
0.0
 11
5686.982095219658
 21
2718.547364455723
 31
0.0
  0
MTEXT
  5
18A4
330
184F
100
AcDbEntity
  8
cotas
100
AcDbMText
 10
5736.945185739867
 20
2673.829634435592
 30
0.0
 40
2.0
 41
0.0
 71
     5
 72
     1
  1
R40
  7
SANINDUSA
 11
0.7244931786699959
 21
-0.6892819699227925
 31
0.0
 73
     1
 44
1.0
1001
ACAD
1000
MTEXTBEGIN
1070
    73
1070
     1
1070
    44
1040
1.0
1070
    74
1070
     0
1000
MTEXTEND
  0
SOLID
  5
18A5
330
184F
100
AcDbEntity
  8
cotas
100
AcDbTrace
 10
5687.211855876299
 20
2718.788862181946
 30
0.0
 11
5686.752334563017
 21
2718.3058667295
 31
0.0
 12
5685.533108862318
 22
2719.925928395569
 32
0.0
 13
5685.533108862318
 23
2719.925928395569
 33
0.0
  0
POINT
  5
18A6
330
184F
100
AcDbEntity
  8
Defpoints
 62
     0
100
AcDbPoint
 10
5685.533108862318
 20
2719.925928395569
 30
0.0
  0
POINT
  5
18A7
330
184F
100
AcDbEntity
  8
Defpoints
 62
     0
100
AcDbPoint
 10
5714.51283600912
 20
2692.354649598656
 30
0.0
  0
ENDBLK
  5
1851
330
184F
100
AcDbEntity
  8
0
100
AcDbBlockEnd
  0
BLOCK
  5
1858
330
1857
100
AcDbEntity
  8
0
100
AcDbBlockBegin
  2
*D101
 70
     1
 10
0.0
 20
0.0
 30
0.0
  3
*D101
  1

  0
LINE
  5
185A
330
1857
100
AcDbEntity
  8
cotas
100
AcDbLine
 10
5698.314151855544
 20
2435.354649598656
 30
0.0
 11
5648.512836009123
 21
2435.354649598656
 31
0.0
  0
LINE
  5
185B
330
1857
100
AcDbEntity
  8
cotas
100
AcDbLine
 10
5698.314151855544
 20
2432.354649598656
 30
0.0
 11
5648.512836009123
 21
2432.354649598656
 31
0.0
  0
LINE
  5
185C
330
1857
100
AcDbEntity
  8
cotas
100
AcDbLine
 10
5649.512836009122
 20
2437.354649598656
 30
0.0
 11
5649.512836009122
 21
2439.354649598655
 31
0.0
  0
LINE
  5
185D
330
1857
100
AcDbEntity
  8
cotas
100
AcDbLine
 10
5649.512836009122
 20
2430.354649598656
 30
0.0
 11
5649.512836009122
 21
2425.036986737675
 31
0.0
  0
LINE
  5
185E
330
1857
100
AcDbEntity
  8
cotas
100
AcDbLine
 10
5649.512836009122
 20
2435.354649598656
 30
0.0
 11
5649.512836009122
 21
2432.354649598656
 31
0.0
  0
SOLID
  5
185F
330
1857
100
AcDbEntity
  8
cotas
100
AcDbTrace
 10
5649.17950267579
 20
2437.354649598656
 30
0.0
 11
5649.846169342456
 21
2437.354649598656
 31
0.0
 12
5649.512836009122
 22
2435.354649598656
 32
0.0
 13
5649.512836009122
 23
2435.354649598656
 33
0.0
  0
SOLID
  5
1860
330
1857
100
AcDbEntity
  8
cotas
100
AcDbTrace
 10
5649.17950267579
 20
2430.354649598656
 30
0.0
 11
5649.846169342456
 21
2430.354649598656
 31
0.0
 12
5649.512836009122
 22
2432.354649598656
 32
0.0
 13
5649.512836009122
 23
2432.354649598656
 33
0.0
  0
MTEXT
  5
1861
330
1857
100
AcDbEntity
  8
cotas
100
AcDbMText
 10
5647.471197325441
 20
2426.695818168167
 30
0.0
 40
2.0
 41
0.0
 71
     5
 72
     1
  1
3
  7
SANINDUSA
 11
0.0000000000000001
 21
1.0
 31
0.0
 73
     1
 44
1.0
1001
ACAD
1000
MTEXTBEGIN
1070
    73
1070
     1
1070
    44
1040
1.0
1070
    74
1070
     0
1000
MTEXTEND
  0
POINT
  5
1862
330
1857
100
AcDbEntity
  8
Defpoints
 62
     0
100
AcDbPoint
 10
5699.314151855543
 20
2435.354649598656
 30
0.0
  0
POINT
  5
1863
330
1857
100
AcDbEntity
  8
Defpoints
 62
     0
100
AcDbPoint
 10
5699.314151855543
 20
2432.354649598656
 30
0.0
  0
POINT
  5
1864
330
1857
100
AcDbEntity
  8
Defpoints
 62
     0
100
AcDbPoint
 10
5649.512836009122
 20
2432.354649598656
 30
0.0
  0
ENDBLK
  5
1859
330
1857
100
AcDbEntity
  8
0
100
AcDbBlockEnd
  0
BLOCK
  5
192C
330
192B
100
AcDbEntity
  8
0
100
AcDbBlockBegin
  2
*D102
 70
     1
 10
0.0
 20
0.0
 30
0.0
  3
*D102
  1

  0
LINE
  5
19E1
330
192B
100
AcDbEntity
  8
cotas
100
AcDbLine
 10
7516.126563455523
 20
2693.354649598656
 30
0.0
 11
7516.126563455523
 21
2758.354649598656
 31
0.0
  0
LINE
  5
19E2
330
192B
100
AcDbEntity
  8
cotas
100
AcDbLine
 10
7181.1265670318
 20
2722.08193784481
 30
0.0
 11
7181.1265670318
 21
2758.354649598656
 31
0.0
  0
LINE
  5
19E3
330
192B
100
AcDbEntity
  8
cotas
100
AcDbLine
 10
7514.126563455523
 20
2757.354649598656
 30
0.0
 11
7183.1265670318
 21
2757.354649598656
 31
0.0
  0
SOLID
  5
19E4
330
192B
100
AcDbEntity
  8
cotas
100
AcDbTrace
 10
7514.126563455523
 20
2757.687982931989
 30
0.0
 11
7514.126563455523
 21
2757.021316265322
 31
0.0
 12
7516.126563455523
 22
2757.354649598656
 32
0.0
 13
7516.126563455523
 23
2757.354649598656
 33
0.0
  0
SOLID
  5
19E5
330
192B
100
AcDbEntity
  8
cotas
100
AcDbTrace
 10
7183.1265670318
 20
2757.687982931989
 30
0.0
 11
7183.1265670318
 21
2757.021316265322
 31
0.0
 12
7181.1265670318
 22
2757.354649598656
 32
0.0
 13
7181.1265670318
 23
2757.354649598656
 33
0.0
  0
MTEXT
  5
19E6
330
192B
100
AcDbEntity
  8
cotas
100
AcDbMText
 10
7348.626565243661
 20
2759.396288282336
 30
0.0
 40
2.0
 41
0.0
 71
     5
 72
     1
  1
335
  7
SANINDUSA
 73
     1
 44
1.0
1001
ACAD
1000
MTEXTBEGIN
1070
    73
1070
     1
1070
    44
1040
1.0
1070
    74
1070
     0
1000
MTEXTEND
  0
POINT
  5
19E7
330
192B
100
AcDbEntity
  8
Defpoints
 62
     0
100
AcDbPoint
 10
7516.126563455523
 20
2692.354649598656
 30
0.0
  0
POINT
  5
19E8
330
192B
100
AcDbEntity
  8
Defpoints
 62
     0
100
AcDbPoint
 10
7181.1265670318
 20
2721.08193784481
 30
0.0
  0
POINT
  5
19E9
330
192B
100
AcDbEntity
  8
Defpoints
 62
     0
100
AcDbPoint
 10
7181.1265670318
 20
2757.354649598656
 30
0.0
  0
ENDBLK
  5
192D
330
192B
100
AcDbEntity
  8
0
100
AcDbBlockEnd
  0
BLOCK
  5
1938
330
1937
100
AcDbEntity
  8
0
100
AcDbBlockBegin
  2
*D103
 70
     1
 10
0.0
 20
0.0
 30
0.0
  3
*D103
  1

  0
LINE
  5
19EA
330
1937
100
AcDbEntity
  8
cotas
100
AcDbLine
 10
7183.126563455523
 20
2732.354649598656
 30
0.0
 11
7155.1265670318
 21
2732.354649598657
 31
0.0
  0
LINE
  5
19EB
330
1937
100
AcDbEntity
  8
cotas
100
AcDbLine
 10
7180.126563455523
 20
2432.378825391587
 30
0.0
 11
7155.1265670318
 21
2432.378825391588
 31
0.0
  0
LINE
  5
19EC
330
1937
100
AcDbEntity
  8
cotas
100
AcDbLine
 10
7156.126567031801
 20
2730.354649598656
 30
0.0
 11
7156.126567031801
 21
2434.378825391588
 31
0.0
  0
SOLID
  5
19ED
330
1937
100
AcDbEntity
  8
cotas
100
AcDbTrace
 10
7155.793233698467
 20
2730.354649598656
 30
0.0
 11
7156.459900365134
 21
2730.354649598656
 31
0.0
 12
7156.126567031801
 22
2732.354649598657
 32
0.0
 13
7156.126567031801
 23
2732.354649598657
 33
0.0
  0
SOLID
  5
19EE
330
1937
100
AcDbEntity
  8
cotas
100
AcDbTrace
 10
7155.793233698467
 20
2434.378825391588
 30
0.0
 11
7156.459900365134
 21
2434.378825391588
 31
0.0
 12
7156.126567031801
 22
2432.378825391588
 32
0.0
 13
7156.126567031801
 23
2432.378825391588
 33
0.0
  0
MTEXT
  5
19EF
330
1937
100
AcDbEntity
  8
cotas
100
AcDbMText
 10
7154.084928348119
 20
2582.366737495123
 30
0.0
 40
2.0
 41
0.0
 71
     5
 72
     1
  1
300
  7
SANINDUSA
 11
0.0000000000000001
 21
1.0
 31
0.0
 73
     1
 44
1.0
1001
ACAD
1000
MTEXTBEGIN
1070
    73
1070
     1
1070
    44
1040
1.0
1070
    74
1070
     0
1000
MTEXTEND
  0
POINT
  5
19F0
330
1937
100
AcDbEntity
  8
Defpoints
 62
     0
100
AcDbPoint
 10
7184.126563455523
 20
2732.354649598656
 30
0.0
  0
POINT
  5
19F1
330
1937
100
AcDbEntity
  8
Defpoints
 62
     0
100
AcDbPoint
 10
7181.126563455523
 20
2432.378825391587
 30
0.0
  0
POINT
  5
19F2
330
1937
100
AcDbEntity
  8
Defpoints
 62
     0
100
AcDbPoint
 10
7156.126567031801
 20
2432.378825391588
 30
0.0
  0
ENDBLK
  5
1939
330
1937
100
AcDbEntity
  8
0
100
AcDbBlockEnd
  0
BLOCK
  5
1956
330
1955
100
AcDbEntity
  8
0
100
AcDbBlockBegin
  2
*D104
 70
     1
 10
0.0
 20
0.0
 30
0.0
  3
*D104
  1

  0
LINE
  5
19F3
330
1955
100
AcDbEntity
  8
cotas
100
AcDbLine
 10
7516.126563455523
 20
2693.354649598656
 30
0.0
 11
7516.126563455523
 21
2758.354649598656
 31
0.0
  0
LINE
  5
19F4
330
1955
100
AcDbEntity
  8
cotas
100
AcDbLine
 10
7518.12656345552
 20
2583.354649598657
 30
0.0
 11
7518.12656345552
 21
2758.354649598656
 31
0.0
  0
LINE
  5
19F5
330
1955
100
AcDbEntity
  8
cotas
100
AcDbLine
 10
7514.126563455523
 20
2757.354649598656
 30
0.0
 11
7512.126563455523
 21
2757.354649598656
 31
0.0
  0
LINE
  5
19F6
330
1955
100
AcDbEntity
  8
cotas
100
AcDbLine
 10
7520.126563455519
 20
2757.354649598656
 30
0.0
 11
7525.480492266803
 21
2757.354649598656
 31
0.0
  0
LINE
  5
19F7
330
1955
100
AcDbEntity
  8
cotas
100
AcDbLine
 10
7516.126563455523
 20
2757.354649598656
 30
0.0
 11
7518.12656345552
 21
2757.354649598656
 31
0.0
  0
SOLID
  5
19F8
330
1955
100
AcDbEntity
  8
cotas
100
AcDbTrace
 10
7514.126563455523
 20
2757.687982931989
 30
0.0
 11
7514.126563455523
 21
2757.021316265322
 31
0.0
 12
7516.126563455523
 22
2757.354649598656
 32
0.0
 13
7516.126563455523
 23
2757.354649598656
 33
0.0
  0
SOLID
  5
19F9
330
1955
100
AcDbEntity
  8
cotas
100
AcDbTrace
 10
7520.126563455519
 20
2757.687982931989
 30
0.0
 11
7520.126563455519
 21
2757.021316265322
 31
0.0
 12
7518.12656345552
 22
2757.354649598656
 32
0.0
 13
7518.12656345552
 23
2757.354649598656
 33
0.0
  0
MTEXT
  5
19FA
330
1955
100
AcDbEntity
  8
cotas
100
AcDbMText
 10
7523.803527861161
 20
2759.375468940496
 30
0.0
 40
2.0
 41
0.0
 71
     5
 72
     1
  1
2
  7
SANINDUSA
 73
     1
 44
1.0
1001
ACAD
1000
MTEXTBEGIN
1070
    73
1070
     1
1070
    44
1040
1.0
1070
    74
1070
     0
1000
MTEXTEND
  0
POINT
  5
19FB
330
1955
100
AcDbEntity
  8
Defpoints
 62
     0
100
AcDbPoint
 10
7516.126563455523
 20
2692.354649598656
 30
0.0
  0
POINT
  5
19FC
330
1955
100
AcDbEntity
  8
Defpoints
 62
     0
100
AcDbPoint
 10
7518.12656345552
 20
2582.354649598657
 30
0.0
  0
POINT
  5
19FD
330
1955
100
AcDbEntity
  8
Defpoints
 62
     0
100
AcDbPoint
 10
7518.12656345552
 20
2757.354649598656
 30
0.0
  0
ENDBLK
  5
1957
330
1955
100
AcDbEntity
  8
0
100
AcDbBlockEnd
  0
BLOCK
  5
1964
330
1963
100
AcDbEntity
  8
0
100
AcDbBlockBegin
  2
*D105
 70
     1
 10
0.0
 20
0.0
 30
0.0
  3
*D105
  1

  0
LINE
  5
1A18
330
1963
100
AcDbEntity
  8
cotas
100
AcDbLine
 10
7463.643541183941
 20
2481.824172922013
 30
0.0
 11
7506.401247059122
 21
2449.388510769903
 31
0.0
  0
MTEXT
  5
1A19
330
1963
100
AcDbEntity
  8
cotas
100
AcDbMText
 10
7467.649718171931
 20
2481.346887425932
 30
0.0
 40
2.0
 41
0.0
 71
     5
 72
     1
  1
R40
  7
SANINDUSA
 11
0.796702200094832
 21
-0.6043720744409477
 31
0.0
 73
     1
 44
1.0
1001
ACAD
1000
MTEXTBEGIN
1070
    73
1070
     1
1070
    44
1040
1.0
1070
    74
1070
     0
1000
MTEXTEND
  0
SOLID
  5
1A1A
330
1963
100
AcDbEntity
  8
cotas
100
AcDbTrace
 10
7506.602704417268
 20
2449.654078169934
 30
0.0
 11
7506.199789700975
 21
2449.122943369872
 31
0.0
 12
7507.994651459312
 22
2448.179766621021
 32
0.0
 13
7507.994651459312
 23
2448.179766621021
 33
0.0
  0
POINT
  5
1A1B
330
1963
100
AcDbEntity
  8
Defpoints
 62
     0
100
AcDbPoint
 10
7507.994651459312
 20
2448.179766621021
 30
0.0
  0
POINT
  5
1A1C
330
1963
100
AcDbEntity
  8
Defpoints
 62
     0
100
AcDbPoint
 10
7476.126563455522
 20
2472.354649598656
 30
0.0
  0
ENDBLK
  5
1965
330
1963
100
AcDbEntity
  8
0
100
AcDbBlockEnd
  0
BLOCK
  5
196C
330
196B
100
AcDbEntity
  8
0
100
AcDbBlockBegin
  2
*D106
 70
     1
 10
0.0
 20
0.0
 30
0.0
  3
*D106
  1

  0
LINE
  5
1A1D
330
196B
100
AcDbEntity
  8
cotas
100
AcDbLine
 10
7452.579643042928
 20
2669.952136827723
 30
0.0
 11
7503.657304244986
 21
2718.547364455723
 31
0.0
  0
MTEXT
  5
1A1E
330
196B
100
AcDbEntity
  8
cotas
100
AcDbMText
 10
7453.694213724775
 20
2673.829634435592
 30
0.0
 40
2.0
 41
0.0
 71
     5
 72
     1
  1
R40
  7
SANINDUSA
 11
0.7244931786700179
 21
0.6892819699227694
 31
0.0
 73
     1
 44
1.0
1001
ACAD
1000
MTEXTBEGIN
1070
    73
1070
     1
1070
    44
1040
1.0
1070
    74
1070
     0
1000
MTEXTEND
  0
SOLID
  5
1A1F
330
196B
100
AcDbEntity
  8
cotas
100
AcDbTrace
 10
7503.427543588344
 20
2718.788862181946
 30
0.0
 11
7503.887064901626
 21
2718.3058667295
 31
0.0
 12
7505.106290602326
 22
2719.925928395568
 32
0.0
 13
7505.106290602326
 23
2719.925928395568
 33
0.0
  0
POINT
  5
1A20
330
196B
100
AcDbEntity
  8
Defpoints
 62
     0
100
AcDbPoint
 10
7505.106290602326
 20
2719.925928395568
 30
0.0
  0
POINT
  5
1A21
330
196B
100
AcDbEntity
  8
Defpoints
 62
     0
100
AcDbPoint
 10
7476.126563455524
 20
2692.354649598657
 30
0.0
  0
ENDBLK
  5
196D
330
196B
100
AcDbEntity
  8
0
100
AcDbBlockEnd
  0
BLOCK
  5
1974
330
1973
100
AcDbEntity
  8
0
100
AcDbBlockBegin
  2
*D107
 70
     1
 10
0.0
 20
0.0
 30
0.0
  3
*D107
  1

  0
LINE
  5
1A08
330
1973
100
AcDbEntity
  8
cotas
100
AcDbLine
 10
7492.325247609099
 20
2435.354649598656
 30
0.0
 11
7542.12656345552
 21
2435.354649598656
 31
0.0
  0
LINE
  5
1A09
330
1973
100
AcDbEntity
  8
cotas
100
AcDbLine
 10
7492.325247609099
 20
2432.354649598656
 30
0.0
 11
7542.12656345552
 21
2432.354649598656
 31
0.0
  0
LINE
  5
1A0A
330
1973
100
AcDbEntity
  8
cotas
100
AcDbLine
 10
7541.126563455519
 20
2437.354649598656
 30
0.0
 11
7541.126563455519
 21
2439.354649598655
 31
0.0
  0
LINE
  5
1A0B
330
1973
100
AcDbEntity
  8
cotas
100
AcDbLine
 10
7541.126563455519
 20
2430.354649598656
 30
0.0
 11
7541.126563455519
 21
2425.036986737675
 31
0.0
  0
LINE
  5
1A0C
330
1973
100
AcDbEntity
  8
cotas
100
AcDbLine
 10
7541.126563455519
 20
2435.354649598656
 30
0.0
 11
7541.126563455519
 21
2432.354649598656
 31
0.0
  0
SOLID
  5
1A0D
330
1973
100
AcDbEntity
  8
cotas
100
AcDbTrace
 10
7540.793230122186
 20
2437.354649598656
 30
0.0
 11
7541.459896788852
 21
2437.354649598656
 31
0.0
 12
7541.126563455519
 22
2435.354649598656
 32
0.0
 13
7541.126563455519
 23
2435.354649598656
 33
0.0
  0
SOLID
  5
1A0E
330
1973
100
AcDbEntity
  8
cotas
100
AcDbTrace
 10
7540.793230122186
 20
2430.354649598656
 30
0.0
 11
7541.459896788852
 21
2430.354649598656
 31
0.0
 12
7541.126563455519
 22
2432.354649598656
 32
0.0
 13
7541.126563455519
 23
2432.354649598656
 33
0.0
  0
MTEXT
  5
1A0F
330
1973
100
AcDbEntity
  8
cotas
100
AcDbMText
 10
7539.084924771838
 20
2426.695818168167
 30
0.0
 40
2.0
 41
0.0
 71
     5
 72
     1
  1
3
  7
SANINDUSA
 11
0.0000000000000001
 21
1.0
 31
0.0
 73
     1
 44
1.0
1001
ACAD
1000
MTEXTBEGIN
1070
    73
1070
     1
1070
    44
1040
1.0
1070
    74
1070
     0
1000
MTEXTEND
  0
POINT
  5
1A10
330
1973
100
AcDbEntity
  8
Defpoints
 62
     0
100
AcDbPoint
 10
7491.325247609099
 20
2435.354649598656
 30
0.0
  0
POINT
  5
1A11
330
1973
100
AcDbEntity
  8
Defpoints
 62
     0
100
AcDbPoint
 10
7491.325247609099
 20
2432.354649598656
 30
0.0
  0
POINT
  5
1A12
330
1973
100
AcDbEntity
  8
Defpoints
 62
     0
100
AcDbPoint
 10
7541.126563455519
 20
2432.354649598656
 30
0.0
  0
ENDBLK
  5
1975
330
1973
100
AcDbEntity
  8
0
100
AcDbBlockEnd
  0
BLOCK
  5
1982
330
1981
100
AcDbEntity
  8
0
100
AcDbBlockBegin
  2
*D108
 70
     1
 10
0.0
 20
0.0
 30
0.0
  3
*D108
  1

  0
LINE
  5
1A13
330
1981
100
AcDbEntity
  8
cotas
100
AcDbLine
 10
7466.620187248892
 20
2567.80376074863
 30
0.0
 11
7516.090381089833
 21
2567.561758114565
 31
0.0
  0
MTEXT
  5
1A14
330
1981
100
AcDbEntity
  8
cotas
100
AcDbMText
 10
7471.875242798637
 20
2569.819716719204
 30
0.0
 40
2.0
 41
0.0
 71
     5
 72
     1
  1
R3026
  7
SANINDUSA
 11
0.9999880349319846
 21
-0.0048918291944742
 31
0.0
 73
     1
 44
1.0
1001
ACAD
1000
MTEXTBEGIN
1070
    73
1070
     1
1070
    44
1040
1.0
1070
    74
1070
     0
1000
MTEXTEND
  0
SOLID
  5
1A15
330
1981
100
AcDbEntity
  8
cotas
100
AcDbTrace
 10
7516.092011699566
 20
2567.895087459543
 30
0.0
 11
7516.088750480102
 21
2567.228428769587
 31
0.0
 12
7518.090357159697
 22
2567.551974456176
 32
0.0
 13
7518.090357159697
 23
2567.551974456176
 33
0.0
  0
POINT
  5
1A16
330
1981
100
AcDbEntity
  8
Defpoints
 62
     0
100
AcDbPoint
 10
7518.090357159697
 20
2567.551974456176
 30
0.0
  0
POINT
  5
1A17
330
1981
100
AcDbEntity
  8
Defpoints
 62
     0
100
AcDbPoint
 10
4492.126563455507
 20
2582.354649598656
 30
0.0
  0
ENDBLK
  5
1983
330
1981
100
AcDbEntity
  8
0
100
AcDbBlockEnd
  0
ENDSEC
  0
SECTION
  2
ENTITIES
  0
ARC
  5
1490
330
1F
100
AcDbEntity
  8
SANINDUSA
100
AcDbCircle
 10
6967.31624416731
 20
2691.40625750726
 30
0.0
 40
0.9883133070751103
100
AcDbArc
 50
90.64667832494031
 51
92.97556741050051
  0
ARC
  5
1494
330
1F
100
AcDbEntity
  8
SANINDUSA
100
AcDbCircle
 10
6964.760949047624
 20
2692.244649598654
 30
0.0
 40
3.02600000000001
100
AcDbArc
 50
357.9167466532841
 51
2.083253346715935
  0
ARC
  5
149A
330
1F
100
AcDbEntity
  8
SANINDUSA
100
AcDbCircle
 10
6970.258949047624
 20
2692.244649598654
 30
0.0
 40
3.02600000000001
100
AcDbArc
 50
177.916746653284
 51
182.0832533467159
  0
LINE
  5
149E
330
1F
100
AcDbEntity
  8
SANINDUSA
100
AcDbLine
 10
6967.552546502715
 20
2692.394649598654
 30
0.0
 11
6967.609949047624
 21
2692.394649598654
 31
0.0
  0
ARC
  5
149F
330
1F
100
AcDbEntity
  8
SANINDUSA
100
AcDbCircle
 10
6967.274949047625
 20
2692.354649598654
 30
0.0
 40
0.0400000000000002
100
AcDbArc
 50
106.3196778314208
 51
180.0
  0
ARC
  5
14A2
330
1F
100
AcDbEntity
  8
SANINDUSA
100
AcDbCircle
 10
6967.744949047624
 20
2692.134649598654
 30
0.0
 40
0.04
100
AcDbArc
 50
292.3316450205756
 51
0.0
  0
ARC
  5
14A6
330
1F
100
AcDbEntity
  8
SANINDUSA
100
AcDbCircle
 10
6967.274949047625
 20
2692.134649598654
 30
0.0
 40
0.0400000000000002
100
AcDbArc
 50
180.0
 51
247.6683549794243
  0
LINE
  5
14A8
330
1F
100
AcDbEntity
  8
SANINDUSA
100
AcDbLine
 10
6967.609949047624
 20
2692.394649598654
 30
0.0
 11
6967.744949047624
 21
2692.394649598654
 31
0.0
  0
ARC
  5
14A9
330
1F
100
AcDbEntity
  8
SANINDUSA
100
AcDbCircle
 10
6967.744949047624
 20
2692.354649598654
 30
0.0
 40
0.04
100
AcDbArc
 50
0.0
 51
90.0
  0
ARC
  5
14AA
330
1F
100
AcDbEntity
  8
SANINDUSA
100
AcDbCircle
 10
6967.265114176036
 20
2692.388239408133
 30
0.0
 40
0.0050000000000002
100
AcDbArc
 50
92.62814791120254
 51
106.3196778314208
  0
LINE
  5
14AB
330
1F
100
AcDbEntity
  8
SANINDUSA
100
AcDbLine
 10
6967.760147731778
 20
2692.094649598654
 30
0.0
 11
6967.609949047624
 21
2692.094649598654
 31
0.0
  0
LINE
  5
14AD
330
1F
100
AcDbEntity
  8
SANINDUSA
100
AcDbLine
 10
6967.760147731778
 20
2692.097649598654
 30
0.0
 11
6967.760147731778
 21
2692.094649598654
 31
0.0
  0
LINE
  5
14AF
330
1F
100
AcDbEntity
  8
SANINDUSA
100
AcDbLine
 10
6967.609949047624
 20
2692.094649598654
 30
0.0
 11
6967.409949047624
 21
2692.094649598654
 31
0.0
  0
LINE
  5
14B0
330
1F
100
AcDbEntity
  8
SANINDUSA
100
AcDbLine
 10
6967.259750363471
 20
2692.097649598654
 30
0.0
 11
6967.259750363471
 21
2692.094649598654
 31
0.0
  0
LINE
  5
14B1
330
1F
100
AcDbEntity
  8
SANINDUSA
100
AcDbLine
 10
6967.409949047624
 20
2692.094649598654
 30
0.0
 11
6967.259750363471
 21
2692.094649598654
 31
0.0
  0
ARC
  5
14B2
330
1F
100
AcDbEntity
  8
SANINDUSA
100
AcDbCircle
 10
6967.323973312722
 20
2691.278806585015
 30
0.0
 40
1.115843220156969
100
AcDbArc
 50
89.96514097850139
 51
90.98243806552504
  0
LINE
  5
14B3
330
1F
100
AcDbEntity
  8
SANINDUSA
100
AcDbLine
 10
6967.324652196895
 20
2692.394649598654
 30
0.0
 11
6967.409889615352
 21
2692.394649598654
 31
0.0
  0
LINE
  5
14B4
330
1F
100
AcDbEntity
  8
SANINDUSA
100
AcDbLine
 10
6967.409889615352
 20
2692.394649598654
 30
0.0
 11
6967.499930885809
 21
2692.394649598654
 31
0.0
  0
ARC
  5
14BB
330
1F
100
AcDbEntity
  8
SANINDUSA
100
AcDbCircle
 10
6966.562260554626
 20
2692.413540678824
 30
0.0
 40
0.0030000000024065
100
AcDbArc
 50
90.00002683675706
 51
127.9397972311851
  0
ARC
  5
14BC
330
1F
100
AcDbEntity
  8
SANINDUSA
100
AcDbCircle
 10
6966.956817296429
 20
2692.413540678824
 30
0.0
 40
0.0030000000024057
100
AcDbArc
 50
52.06830880928951
 51
89.99997316324295
  0
ARC
  5
14BD
330
1F
100
AcDbEntity
  8
SANINDUSA
100
AcDbCircle
 10
6966.659538925528
 20
2692.256540678824
 30
0.0
 40
0.177
100
AcDbArc
 50
180.0
 51
270.0
  0
LINE
  5
14BE
330
1F
100
AcDbEntity
  8
SANINDUSA
100
AcDbLine
 10
6966.659538925528
 20
2692.079540678824
 30
0.0
 11
6966.859538925527
 21
2692.079540678824
 31
0.0
  0
ARC
  5
14BF
330
1F
100
AcDbEntity
  8
SANINDUSA
100
AcDbCircle
 10
6966.859538925527
 20
2692.256540678824
 30
0.0
 40
0.1770000000000002
100
AcDbArc
 50
270.0
 51
0.0
  0
ARC
  5
14C0
330
1F
100
AcDbEntity
  8
SANINDUSA
100
AcDbCircle
 10
6966.834538925528
 20
2692.256540678824
 30
0.0
 40
0.2020000000000004
100
AcDbArc
 50
0.0
 51
52.08727111319502
  0
ARC
  5
14C1
330
1F
100
AcDbEntity
  8
SANINDUSA
100
AcDbCircle
 10
6966.684538925527
 20
2692.256540678824
 30
0.0
 40
0.2020000000000002
100
AcDbArc
 50
127.9132105328173
 51
180.0
  0
LINE
  5
14C2
330
1F
100
AcDbEntity
  8
SANINDUSA
100
AcDbLine
 10
6966.565543191308
 20
2692.416540678824
 30
0.0
 11
6966.653700637637
 21
2692.416540678824
 31
0.0
  0
ARC
  5
14C5
330
1F
100
AcDbEntity
  8
SANINDUSA
100
AcDbCircle
 10
6966.565543161272
 20
2692.413540577708
 30
0.0
 40
0.0030001011156125
100
AcDbArc
 50
89.9994263708313
 51
127.1591136387793
  0
ARC
  5
14C7
330
1F
100
AcDbEntity
  8
SANINDUSA
100
AcDbCircle
 10
6966.684538925527
 20
2692.256540678824
 30
0.0
 40
0.2000000000000001
100
AcDbArc
 50
127.1605235924319
 51
180.0
  0
ARC
  5
14C9
330
1F
100
AcDbEntity
  8
SANINDUSA
100
AcDbCircle
 10
6966.659561838958
 20
2692.255565186159
 30
0.0
 40
0.1398678136348932
100
AcDbArc
 50
126.127587676814
 51
179.6003936434756
  0
LWPOLYLINE
  5
14CB
330
1F
100
AcDbEntity
  8
SANINDUSA
100
AcDbPolyline
 90
       19
 70
   128
 43
0.0
 10
6966.519697427097
 20
2692.256540678824
 10
6966.520322421065
 20
2692.243662885487
 10
6966.522204490272
 20
2692.23078509215
 10
6966.524959035975
 20
2692.219364806271
 10
6966.52867962796
 20
2692.208221663984
 10
6966.533489367759
 20
2692.197111809321
 10
6966.539241688955
 20
2692.186459143066
 10
6966.545751180499
 20
2692.17653545399
 10
6966.553070260937
 20
2692.167192454082
 10
6966.561398428706
 20
2692.158248553133
 10
6966.570465311511
 20
2692.15005402315
 10
6966.579957936288
 20
2692.142843531506
 10
6966.590021879028
 20
2692.136454413525
 10
6966.600909190749
 20
2692.13078360584
 10
6966.612244761835
 20
2692.126072551045
 10
6966.623599917685
 20
2692.122452348865
 10
6966.635217156043
 20
2692.119791911782
 10
6966.647363978961
 20
2692.118076811672
 10
6966.659612422694
 20
2692.117405122474
  0
ARC
  5
14CE
330
1F
100
AcDbEntity
  8
SANINDUSA
100
AcDbCircle
 10
6966.659538925528
 20
2692.256540678824
 30
0.0
 40
0.1750000000000001
100
AcDbArc
 50
180.0
 51
270.0
  0
ARC
  5
14D0
330
1F
100
AcDbEntity
  8
SANINDUSA
100
AcDbCircle
 10
6966.834538925528
 20
2692.256540678824
 30
0.0
 40
0.2000000000000001
100
AcDbArc
 50
0.0
 51
52.83947640756813
  0
LINE
  5
14D5
330
1F
100
AcDbEntity
  8
SANINDUSA
100
AcDbLine
 10
6966.865377213418
 20
2692.416540678824
 30
0.0
 11
6966.953534659747
 21
2692.416540678824
 31
0.0
  0
LWPOLYLINE
  5
14D8
330
1F
100
AcDbEntity
  8
SANINDUSA
100
AcDbPolyline
 90
       34
 70
   128
 43
0.0
 10
6966.800297596551
 20
2692.12618746552
 10
6966.810414748919
 20
2692.130664437527
 10
6966.820824755915
 20
2692.136337396737
 10
6966.830720828942
 20
2692.142866185935
 10
6966.840301909647
 20
2692.150431266197
 10
6966.849199939172
 20
2692.158789355564
 10
6966.856954914553
 20
2692.167402359687
 10
6966.863986165094
 20
2692.176615700465
 10
6966.870407099776
 20
2692.186648548765
 10
6966.875967840825
 20
2692.197182362634
 10
6966.880405491036
 20
2692.207569737223
 10
6966.883998345089
 20
2692.218278465103
 10
6966.886775368009
 20
2692.229545340087
 10
6966.888598798043
 20
2692.241004949515
 10
6966.88944186005
 20
2692.252698269816
 10
6966.889267204276
 20
2692.264420437008
 10
6966.888019220037
 20
2692.276450943778
 10
6966.885717195795
 20
2692.288325244525
 10
6966.882464456588
 20
2692.299727955598
 10
6966.878262348025
 20
2692.310816235997
 10
6966.872978757658
 20
2692.321824551147
 10
6966.866771120469
 20
2692.332339701814
 10
6966.860050625375
 20
2692.341812239298
 10
6966.852582873274
 20
2692.350707543464
 10
6966.844177478821
 20
2692.359185130393
 10
6966.83509244008
 20
2692.366929681837
 10
6966.825871846426
 20
2692.373563265029
 10
6966.816148484539
 20
2692.379434802884
 10
6966.805694554105
 20
2692.384625334515
 10
6966.794841775798
 20
2692.388919210596
 10
6966.783960530579
 20
2692.392194862606
 10
6966.772843068776
 20
2692.394545856267
 10
6966.761231087608
 20
2692.39597322474
 10
6966.749538925528
 20
2692.396414901667
  0
ARC
  5
14DA
330
1F
100
AcDbEntity
  8
SANINDUSA
100
AcDbCircle
 10
6966.660826267942
 20
2692.254011253057
 30
0.0
 40
0.1418684625949192
100
AcDbArc
 50
90.51992031985518
 51
126.1700383159727
  0
LWPOLYLINE
  5
14DE
330
1F
100
AcDbEntity
  8
SANINDUSA
100
AcDbPolyline
 90
        9
 70
   128
 43
0.0
 10
6966.659612422694
 20
2692.117405122474
 10
6966.708206558078
 20
2692.116987643651
 10
6966.732505962331
 20
2692.116811666176
 10
6966.744660342626
 20
2692.116677769556
 10
6966.756808234824
 20
2692.116863280301
 10
6966.767745934454
 20
2692.117807356183
 10
6966.778640223139
 20
2692.119650796886
 10
6966.789563406242
 20
2692.122453777901
 10
6966.800297596551
 20
2692.12618746552
  0
LINE
  5
14E4
330
1F
100
AcDbEntity
  8
SANINDUSA
100
AcDbLine
 10
6966.653700637637
 20
2692.416540678824
 30
0.0
 11
6966.865377213418
 21
2692.416540678824
 31
0.0
  0
LWPOLYLINE
  5
14E5
330
1F
100
AcDbEntity
  8
SANINDUSA
100
AcDbPolyline
 90
        4
 70
   128
 43
0.0
 10
6966.749538925528
 20
2692.396414901667
 10
6966.739539089265
 20
2692.396375371304
 10
6966.699540459327
 20
2692.396147704152
 10
6966.659538925528
 20
2692.395873874732
  0
CIRCLE
  5
14E6
330
1F
100
AcDbEntity
  8
SANINDUSA
100
AcDbCircle
 10
6966.944538925528
 20
2692.256540678824
 30
0.0
 40
0.0175
  0
ARC
  5
14E7
330
1F
100
AcDbEntity
  8
SANINDUSA
100
AcDbCircle
 10
6966.859538925527
 20
2692.256540678824
 30
0.0
 40
0.175
100
AcDbArc
 50
270.0
 51
0.0
  0
LINE
  5
14E9
330
1F
100
AcDbEntity
  8
SANINDUSA
100
AcDbLine
 10
6966.859538925527
 20
2692.081540678824
 30
0.0
 11
6966.659538925528
 21
2692.081540678824
 31
0.0
  0
CIRCLE
  5
14EA
330
1F
100
AcDbEntity
  8
SANINDUSA
100
AcDbCircle
 10
6966.779538925528
 20
2692.256540678824
 30
0.0
 40
0.0360000000000005
  0
LINE
  5
14ED
330
1F
100
AcDbEntity
  8
SANINDUSA
100
AcDbLine
 10
6966.562260553221
 20
2692.416540678824
 30
0.0
 11
6966.565543191308
 21
2692.416540678824
 31
0.0
  0
LINE
  5
14EE
330
1F
100
AcDbEntity
  8
SANINDUSA
100
AcDbLine
 10
6966.953534659747
 20
2692.416540678824
 30
0.0
 11
6966.956817297833
 21
2692.416540678824
 31
0.0
  0
CIRCLE
  5
14EF
330
1F
100
AcDbEntity
  8
SANINDUSA
100
AcDbCircle
 10
6966.779538925528
 20
2692.256540678824
 30
0.0
 40
0.0235
  0
LINE
  5
14F8
330
1F
100
AcDbEntity
  8
SANINDUSA
100
AcDbLine
 10
6967.499930885809
 20
2692.394649598654
 30
0.0
 11
6967.552546502715
 21
2692.394649598654
 31
0.0
  0
LWPOLYLINE
  5
152C
330
1F
100
AcDbEntity
  8
SANINDUSA
100
AcDbPolyline
 90
       18
 70
   128
 43
0.0
 10
6968.832049889627
 20
2692.104649598654
 10
6968.822079252728
 20
2692.247236349331
 42
0.4028620994778171
 10
6968.811794642308
 20
2692.256534010333
 10
6968.810588053033
 20
2692.256496712547
 10
6968.800283236834
 20
2692.256178164066
 42
-0.6480654658498013
 10
6968.799486439528
 20
2692.257820646942
 10
6968.805280027327
 20
2692.264722015043
 10
6968.811797822723
 20
2692.273888897452
 10
6968.817756286535
 20
2692.28373677679
 10
6968.82303485376
 20
2692.293967240813
 10
6968.827769189714
 20
2692.304739264166
 10
6968.831868577531
 20
2692.31578025346
 10
6968.835352039928
 20
2692.327022182484
 10
6968.83831700772
 20
2692.338738785972
 10
6968.840685250346
 20
2692.35059882892
 10
6968.842472728574
 20
2692.36255333735
 10
6968.843515429451
 20
2692.372398875841
 10
6968.844086856283
 20
2692.380856069889
  0
ARC
  5
152D
330
1F
100
AcDbEntity
  8
SANINDUSA
100
AcDbCircle
 10
6968.573355659001
 20
2692.260552085342
 30
0.0
 40
0.0100374767309253
100
AcDbArc
 50
89.67166455001901
 51
178.1194738989472
  0
LINE
  5
152F
330
1F
100
AcDbEntity
  8
SANINDUSA
100
AcDbLine
 10
6968.555714761726
 20
2692.394649598654
 30
0.0
 11
6968.832524738767
 21
2692.394649598654
 31
0.0
  0
ARC
  5
1531
330
1F
100
AcDbEntity
  8
SANINDUSA
100
AcDbCircle
 10
6968.555759108375
 20
2692.389582088227
 30
0.0
 40
0.0050677044656754
100
AcDbArc
 50
1.832198222257725
 51
90.50139237286037
  0
LWPOLYLINE
  5
1532
330
1F
100
AcDbEntity
  8
SANINDUSA
100
AcDbPolyline
 90
        8
 70
   128
 43
0.0
 10
6968.743624802996
 20
2692.225346362172
 10
6968.752375545399
 20
2692.22708950769
 10
6968.760982750447
 20
2692.229870854641
 10
6968.766833431915
 20
2692.232394415519
 10
6968.772481966609
 20
2692.235344022999
 10
6968.778020218211
 20
2692.238758187631
 10
6968.783315376966
 20
2692.242539451562
 10
6968.787309712746
 20
2692.245751691408
  0
ARC
  5
1533
330
1F
100
AcDbEntity
  8
SANINDUSA
100
AcDbCircle
 10
6968.744994342213
 20
2692.215440578546
 30
0.0
 40
0.0100000093456761
100
AcDbArc
 50
97.87161354345835
 51
175.0000457244318
  0
LINE
  5
1534
330
1F
100
AcDbEntity
  8
SANINDUSA
100
AcDbLine
 10
6968.735032385225
 20
2692.216312128836
 30
0.0
 11
6968.732524738766
 21
2692.187649598654
 31
0.0
  0
LINE
  5
1535
330
1F
100
AcDbEntity
  8
SANINDUSA
100
AcDbLine
 10
6968.732524738766
 20
2692.187649598654
 30
0.0
 11
6968.721024738766
 21
2692.187649598654
 31
0.0
  0
LINE
  5
1536
330
1F
100
AcDbEntity
  8
SANINDUSA
100
AcDbLine
 10
6968.721024738766
 20
2692.187649598654
 30
0.0
 11
6968.721024738766
 21
2692.223783514431
 31
0.0
  0
LINE
  5
1537
330
1F
100
AcDbEntity
  8
SANINDUSA
100
AcDbLine
 10
6968.721024738766
 20
2692.223783514431
 30
0.0
 11
6968.733524738766
 21
2692.234649598654
 31
0.0
  0
LWPOLYLINE
  5
1538
330
1F
100
AcDbEntity
  8
SANINDUSA
100
AcDbPolyline
 90
       20
 70
   128
 43
0.0
 10
6968.733524738766
 20
2692.234649598654
 10
6968.740777593005
 20
2692.235072958383
 10
6968.74796144506
 20
2692.236309834483
 10
6968.754949525069
 20
2692.238310422324
 10
6968.761745726119
 20
2692.241057583131
 10
6968.76826047344
 20
2692.244459843672
 10
6968.774431624698
 20
2692.248426662563
 10
6968.781293604425
 20
2692.253776588851
 10
6968.787677453319
 20
2692.259733742222
 10
6968.793575657321
 20
2692.266186763496
 10
6968.798980702373
 20
2692.273024293494
 10
6968.806339624291
 20
2692.284061899988
 10
6968.812724722005
 20
2692.295741844938
 10
6968.818183091866
 20
2692.307900937214
 10
6968.822761830221
 20
2692.320375985689
 10
6968.826702421186
 20
2692.333768614664
 10
6968.829794996633
 20
2692.347419287314
 10
6968.832062362924
 20
2692.361249316935
 10
6968.833527326427
 20
2692.375180016822
 10
6968.834212693505
 20
2692.389132700271
  0
ARC
  5
1539
330
1F
100
AcDbEntity
  8
SANINDUSA
100
AcDbCircle
 10
6968.839244307542
 20
2692.388963991544
 30
0.0
 40
0.0050344416210522
100
AcDbArc
 50
77.99781683997214
 51
178.0796066798417
  0
ARC
  5
153A
330
1F
100
AcDbEntity
  8
SANINDUSA
100
AcDbCircle
 10
6968.832524738767
 20
2692.354649598654
 30
0.0
 40
0.04
100
AcDbArc
 50
0.0
 51
78.80423217334826
  0
ARC
  5
153B
330
1F
100
AcDbEntity
  8
SANINDUSA
100
AcDbCircle
 10
6965.848524738766
 20
2692.244649598654
 30
0.0
 40
3.02600000000001
100
AcDbArc
 50
357.9167466532841
 51
2.083253346715935
  0
ARC
  5
153C
330
1F
100
AcDbEntity
  8
SANINDUSA
100
AcDbCircle
 10
6968.832524738767
 20
2692.134649598654
 30
0.0
 40
0.04
100
AcDbArc
 50
292.3316450205756
 51
0.0
  0
LINE
  5
153D
330
1F
100
AcDbEntity
  8
SANINDUSA
100
AcDbLine
 10
6968.84772342292
 20
2692.094649598654
 30
0.0
 11
6968.84772342292
 21
2692.097649598654
 31
0.0
  0
LINE
  5
153E
330
1F
100
AcDbEntity
  8
SANINDUSA
100
AcDbLine
 10
6968.84772342292
 20
2692.094649598654
 30
0.0
 11
6968.822724738766
 21
2692.094649598654
 31
0.0
  0
LINE
  5
153F
330
1F
100
AcDbEntity
  8
SANINDUSA
100
AcDbLine
 10
6968.822724738766
 20
2692.094649598654
 30
0.0
 11
6968.812104756698
 21
2692.246522417854
 31
0.0
  0
LWPOLYLINE
  5
1540
330
1F
100
AcDbEntity
  8
SANINDUSA
100
AcDbPolyline
 90
        5
 70
   128
 43
0.0
 10
6968.812104857672
 20
2692.246520973879
 10
6968.805899422367
 20
2692.246329156374
 10
6968.799693987155
 20
2692.246137335832
 10
6968.793502378743
 20
2692.245945939646
 10
6968.787310770425
 20
2692.245754540389
  0
ARC
  5
1541
330
1F
100
AcDbEntity
  8
SANINDUSA
100
AcDbCircle
 10
6968.832524738767
 20
2692.354649598654
 30
0.0
 40
0.03
100
AcDbArc
 50
359.6773893914964
 51
64.33567027010036
  0
LINE
  5
1542
330
1F
100
AcDbEntity
  8
SANINDUSA
100
AcDbLine
 10
6968.837723422921
 20
2692.104649598654
 30
0.0
 11
6968.832049889627
 21
2692.104649598654
 31
0.0
  0
LINE
  5
1543
330
1F
100
AcDbEntity
  8
SANINDUSA
100
AcDbLine
 10
6968.837723422921
 20
2692.104649598654
 30
0.0
 11
6968.837723422921
 21
2692.105103470598
 31
0.0
  0
ARC
  5
1544
330
1F
100
AcDbEntity
  8
SANINDUSA
100
AcDbCircle
 10
6968.832524738767
 20
2692.134649598654
 30
0.0
 40
0.03
100
AcDbArc
 50
279.9791312743126
 51
0.3226106085036367
  0
ARC
  5
1545
330
1F
100
AcDbEntity
  8
SANINDUSA
100
AcDbCircle
 10
6965.848524738766
 20
2692.244649598654
 30
0.0
 40
3.016000000000012
100
AcDbArc
 50
357.9130473492427
 51
2.086952650757224
  0
ARC
  5
1546
330
1F
100
AcDbEntity
  8
SANINDUSA
100
AcDbCircle
 10
6968.650055135366
 20
2692.21544057859
 30
0.0
 40
0.0100000092960655
100
AcDbArc
 50
4.999954041964501
 51
82.12838671820598
  0
LWPOLYLINE
  5
1547
330
1F
100
AcDbEntity
  8
SANINDUSA
100
AcDbPolyline
 90
        9
 70
   128
 43
0.0
 10
6968.593284324575
 20
2692.260351066452
 10
6968.601267920084
 20
2692.251673036723
 10
6968.610166240293
 20
2692.243762111485
 10
6968.616086702613
 20
2692.239393381749
 10
6968.622319777512
 20
2692.23548544362
 10
6968.629027564253
 20
2692.232013152465
 10
6968.636014354314
 20
2692.22914629859
 10
6968.643580966966
 20
2692.226858805316
 10
6968.651424674536
 20
2692.225346362171
  0
LWPOLYLINE
  5
1548
330
1F
100
AcDbEntity
  8
SANINDUSA
100
AcDbPolyline
 90
        5
 70
   128
 43
0.0
 10
6968.593283619565
 20
2692.260348444943
 10
6968.588290599292
 20
2692.260394467488
 10
6968.583297579013
 20
2692.260440489166
 10
6968.578307537737
 20
2692.260486482514
 10
6968.573317496454
 20
2692.260532474988
  0
LINE
  5
1549
330
1F
100
AcDbEntity
  8
SANINDUSA
100
AcDbLine
 10
6968.573317495553
 20
2692.260532449191
 30
0.0
 11
6968.57276285419
 21
2692.244649598654
 31
0.0
  0
LINE
  5
154A
330
1F
100
AcDbEntity
  8
SANINDUSA
100
AcDbLine
 10
6968.57276285419
 20
2692.244649598654
 30
0.0
 11
6968.537524738767
 21
2692.244649598654
 31
0.0
  0
LINE
  5
154B
330
1F
100
AcDbEntity
  8
SANINDUSA
100
AcDbLine
 10
6968.537524738767
 20
2692.391649598654
 30
0.0
 11
6968.537524738767
 21
2692.244649598654
 31
0.0
  0
ARC
  5
154C
330
1F
100
AcDbEntity
  8
SANINDUSA
100
AcDbCircle
 10
6968.540524738767
 20
2692.391649598654
 30
0.0
 40
0.003
100
AcDbArc
 50
90.0
 51
180.0
  0
LWPOLYLINE
  5
154D
330
1F
100
AcDbEntity
  8
SANINDUSA
100
AcDbPolyline
 90
       18
 70
   128
 43
0.0
 10
6968.560824221981
 20
2692.389744115113
 10
6968.56164140265
 20
2692.373692601642
 10
6968.563493526126
 20
2692.357691442607
 10
6968.566411980969
 20
2692.341856130287
 10
6968.570428155738
 20
2692.326302156967
 10
6968.574822877823
 20
2692.313142416612
 10
6968.580151732783
 20
2692.300287593634
 10
6968.58646647059
 20
2692.287906701873
 10
6968.59381884122
 20
2692.27616875517
 10
6968.600512792161
 20
2692.267331385873
 10
6968.607983857959
 20
2692.259115428753
 10
6968.616229287722
 20
2692.251727884609
 10
6968.623324557248
 20
2692.246598779346
 10
6968.630925127715
 20
2692.24221246753
 10
6968.638941951659
 20
2692.238721818896
 10
6968.646290376449
 20
2692.236500235717
 10
6968.653867088438
 20
2692.23512244827
 10
6968.661524738767
 20
2692.234649598654
  0
LINE
  5
154E
330
1F
100
AcDbEntity
  8
SANINDUSA
100
AcDbLine
 10
6968.661524738767
 20
2692.234649598654
 30
0.0
 11
6968.674024738766
 21
2692.223783514431
 31
0.0
  0
LINE
  5
154F
330
1F
100
AcDbEntity
  8
SANINDUSA
100
AcDbLine
 10
6968.674024738766
 20
2692.223783514431
 30
0.0
 11
6968.674024738766
 21
2692.187649598654
 31
0.0
  0
LINE
  5
1550
330
1F
100
AcDbEntity
  8
SANINDUSA
100
AcDbLine
 10
6968.674024738766
 20
2692.187649598654
 30
0.0
 11
6968.662524738767
 21
2692.187649598654
 31
0.0
  0
LINE
  5
1551
330
1F
100
AcDbEntity
  8
SANINDUSA
100
AcDbLine
 10
6968.662524738767
 20
2692.187649598654
 30
0.0
 11
6968.660017092307
 21
2692.216312128835
 31
0.0
  0
LWPOLYLINE
  5
1552
330
1F
100
AcDbEntity
  8
SANINDUSA
100
AcDbPolyline
 90
       22
 70
   128
 43
0.0
 10
6968.563323588184
 20
2692.260881469954
 10
6968.563139668494
 20
2692.255614699157
 42
-0.4040262258351583
 10
6968.562140277668
 20
2692.254649598654
 10
6968.548524738766
 20
2692.254649598654
 42
-0.4142135623730951
 10
6968.547524738766
 20
2692.255649598654
 10
6968.547524738766
 20
2692.383649598654
 42
-0.4142135623730951
 10
6968.548524738766
 20
2692.384649598654
 10
6968.549819903187
 20
2692.384649598654
 42
-0.3967438242162404
 10
6968.550818103032
 20
2692.383709574242
 10
6968.551405121094
 20
2692.373939576865
 10
6968.552488530187
 20
2692.363265156755
 10
6968.55402932765
 20
2692.352570529837
 10
6968.556030519469
 20
2692.341952626148
 10
6968.558813462923
 20
2692.330257906685
 10
6968.562206595918
 20
2692.318717474002
 10
6968.566229925959
 20
2692.307391882537
 10
6968.571074010999
 20
2692.295965587689
 10
6968.576662949812
 20
2692.284871494758
 10
6968.583030712263
 20
2692.274226790332
 10
6968.584494005914
 20
2692.272053690171
 42
-0.6037267035706389
 10
6968.583655332041
 20
2692.270495190594
 10
6968.573413178798
 20
2692.270589397263
  0
LINE
  5
1553
330
1F
100
AcDbEntity
  8
SANINDUSA
100
AcDbLine
 10
6968.555714761726
 20
2692.394649598654
 30
0.0
 11
6968.540524738767
 21
2692.394649598654
 31
0.0
  0
LINE
  5
1554
330
1F
100
AcDbEntity
  8
SANINDUSA
100
AcDbLine
 10
6968.721024738766
 20
2692.223783514431
 30
0.0
 11
6968.674024738766
 21
2692.223783514431
 31
0.0
  0
SPLINE
  5
1555
330
1F
100
AcDbEntity
  8
SANINDUSA
100
AcDbSpline
210
0.0
220
0.0
230
1.0
 70
    28
 71
     3
 72
    24
 73
    20
 74
     0
 42
0.0000000001
 43
0.0000000001
 40
0.2854998149786421
 40
0.2854998149786421
 40
0.2854998149786421
 40
0.2854998149786421
 40
0.3123123380967294
 40
0.3391248612257682
 40
0.3659373843548068
 40
0.3927499074838454
 40
0.4195624306128841
 40
0.4463749537419229
 40
0.4731874768709613
 40
0.5
 40
0.5
 40
0.5268125231290388
 40
0.5536250462580773
 40
0.5804375693871159
 40
0.6072500925161545
 40
0.6340626156451932
 40
0.6608751387742318
 40
0.6876876619032704
 40
0.714500185021358
 40
0.714500185021358
 40
0.714500185021358
 40
0.714500185021358
 10
6968.733524738766
 20
2692.234649598654
 30
0.0
 41
1.0
 10
6968.733524738766
 20
2692.234649598654
 30
0.0
 41
1.0
 10
6968.733082567806
 20
2692.234649598654
 30
0.0
 41
1.0
 10
6968.731074920722
 20
2692.234649598654
 30
0.0
 41
1.0
 10
6968.72776884278
 20
2692.234649598654
 30
0.0
 41
1.0
 10
6968.723273813735
 20
2692.234649598654
 30
0.0
 41
1.0
 10
6968.717760371443
 20
2692.234649598654
 30
0.0
 41
1.0
 10
6968.711451015209
 20
2692.234649598654
 30
0.0
 41
1.0
 10
6968.704608011794
 20
2692.234649598654
 30
0.0
 41
1.0
 10
6968.69988093324
 20
2692.234649598654
 30
0.0
 41
1.0
 10
6968.69516854429
 20
2692.234649598654
 30
0.0
 41
1.0
 10
6968.690441465739
 20
2692.234649598654
 30
0.0
 41
1.0
 10
6968.683598462323
 20
2692.234649598654
 30
0.0
 41
1.0
 10
6968.677289106089
 20
2692.234649598654
 30
0.0
 41
1.0
 10
6968.671775663796
 20
2692.234649598654
 30
0.0
 41
1.0
 10
6968.667280634753
 20
2692.234649598654
 30
0.0
 41
1.0
 10
6968.66397455681
 20
2692.234649598654
 30
0.0
 41
1.0
 10
6968.661966909727
 20
2692.234649598654
 30
0.0
 41
1.0
 10
6968.661524738767
 20
2692.234649598654
 30
0.0
 41
1.0
 10
6968.661524738767
 20
2692.234649598654
 30
0.0
 41
1.0
  0
LINE
  5
1558
330
1F
100
AcDbEntity
  8
SANINDUSA
100
AcDbLine
 10
6968.674024738766
 20
2692.187649598654
 30
0.0
 11
6968.721024738766
 21
2692.187649598654
 31
0.0
  0
LWPOLYLINE
  5
1561
330
1F
100
AcDbEntity
  8
SANINDUSA
100
AcDbPolyline
 90
        3
 70
   128
 43
0.0
 10
6968.832524738767
 20
2692.394649598654
 10
6968.836938999453
 20
2692.394405281299
 10
6968.840291214448
 20
2692.393888378649
  0
LINE
  5
1578
330
1F
100
AcDbEntity
  8
SANINDUSA
100
AcDbLine
 10
6968.537524738767
 20
2692.228122562208
 30
0.0
 11
6968.537524738767
 21
2692.244649598654
 31
0.0
  0
LINE
  5
1579
330
1F
100
AcDbEntity
  8
SANINDUSA
100
AcDbLine
 10
6968.57276285419
 20
2692.244649598654
 30
0.0
 11
6968.572185717359
 21
2692.228122562208
 31
0.0
  0
LINE
  5
157A
330
1F
100
AcDbEntity
  8
SANINDUSA
100
AcDbLine
 10
6968.537524738767
 20
2692.228122562208
 30
0.0
 11
6968.537524738767
 21
2692.094649598654
 31
0.0
  0
LINE
  5
157B
330
1F
100
AcDbEntity
  8
SANINDUSA
100
AcDbLine
 10
6968.567524738766
 20
2692.094649598654
 30
0.0
 11
6968.537524738767
 21
2692.094649598654
 31
0.0
  0
LINE
  5
157C
330
1F
100
AcDbEntity
  8
SANINDUSA
100
AcDbLine
 10
6968.572185717359
 20
2692.228122562208
 30
0.0
 11
6968.567524738766
 21
2692.094649598654
 31
0.0
  0
LINE
  5
1580
330
1F
100
AcDbEntity
  8
SANINDUSA
100
AcDbLine
 10
6968.697524738949
 20
2692.094649598654
 30
0.0
 11
6968.822724738766
 21
2692.094649598654
 31
0.0
  0
LWPOLYLINE
  5
1582
330
1F
100
AcDbEntity
  8
SANINDUSA
100
AcDbPolyline
 90
       39
 70
   128
 43
0.0
 10
6968.697524738766
 20
2692.341234062614
 10
6968.70046678449
 20
2692.341560755327
 10
6968.702637699514
 20
2692.342247455457
 10
6968.704663497101
 20
2692.343286906715
 10
6968.704667893764
 20
2692.343289657687
 10
6968.706485674217
 20
2692.344653714173
 10
6968.708051779239
 20
2692.346299276819
 10
6968.709314897378
 20
2692.348176388669
 10
6968.710249068348
 20
2692.350233679292
 10
6968.710823269493
 20
2692.35241764312
 10
6968.711024623356
 20
2692.354662134583
 10
6968.710840685355
 20
2692.356911424514
 10
6968.710280953215
 20
2692.359094290294
 10
6968.709355713243
 20
2692.361149307049
 10
6968.708096677151
 20
2692.363019819004
 10
6968.706539692973
 20
2692.364647092726
 10
6968.704729345652
 20
2692.365995199081
 10
6968.702716971034
 20
2692.367021215647
 10
6968.700558497356
 20
2692.36770388045
 10
6968.698313173657
 20
2692.368019142309
 10
6968.696045586824
 20
2692.367963266248
 10
6968.693143900503
 20
2692.367325257713
 10
6968.691060093657
 20
2692.366421260746
 10
6968.68915959464
 20
2692.365187435129
 10
6968.687502185812
 20
2692.363657265952
 10
6968.686126669472
 20
2692.361874565832
 10
6968.685078945283
 20
2692.359892217973
 10
6968.684378899744
 20
2692.357761642629
 10
6968.684051568008
 20
2692.355539512163
 10
6968.684101545346
 20
2692.35328985297
 10
6968.684535258351
 20
2692.35106796111
 10
6968.685335323174
 20
2692.348945477621
 10
6968.686485071252
 20
2692.346983046661
 10
6968.687946176186
 20
2692.345236891736
 10
6968.68967273031
 20
2692.343766693185
 10
6968.691619251803
 20
2692.342602248796
 10
6968.693727898359
 20
2692.341783994854
 10
6968.695943190152
 20
2692.341327684767
 10
6968.697524738766
 20
2692.341234062614
  0
LINE
  5
1585
330
1F
100
AcDbEntity
  8
SANINDUSA
100
AcDbLine
 10
6968.57049175346
 20
2692.094649598654
 30
0.0
 11
6968.567524738766
 21
2692.094649598654
 31
0.0
  0
LINE
  5
1586
330
1F
100
AcDbEntity
  8
SANINDUSA
100
AcDbLine
 10
6968.57049175346
 20
2692.094649598654
 30
0.0
 11
6968.697524738949
 21
2692.094649598654
 31
0.0
  0
ARC
  5
158A
330
1F
100
AcDbEntity
  8
SANINDUSA
100
AcDbCircle
 10
6968.845084581423
 20
2692.380788656641
 30
0.0
 40
0.001
100
AcDbArc
 50
64.33567027010036
 51
176.134573887283
  0
ARC
  5
1901
330
1F
100
AcDbEntity
  8
SANINDUSA
100
AcDbCircle
 10
6965.309290662033
 20
2692.244649598654
 30
0.0
 40
3.026000000000011
100
AcDbArc
 50
357.9167466532841
 51
2.083253346715935
  0
ARC
  5
1907
330
1F
100
AcDbEntity
  8
SANINDUSA
100
AcDbCircle
 10
6968.293290662032
 20
2692.134649598654
 30
0.0
 40
0.04
100
AcDbArc
 50
292.3316450205756
 51
359.9998485156257
  0
LINE
  5
190A
330
1F
100
AcDbEntity
  8
SANINDUSA
100
AcDbLine
 10
6968.158290662032
 20
2692.394649598654
 30
0.0
 11
6968.001290662032
 21
2692.394649598654
 31
0.0
  0
ARC
  5
190D
330
1F
100
AcDbEntity
  8
SANINDUSA
100
AcDbCircle
 10
6968.293290662032
 20
2692.354649598654
 30
0.0
 40
0.04
100
AcDbArc
 50
0.0
 51
90.0
  0
LINE
  5
190E
330
1F
100
AcDbEntity
  8
SANINDUSA
100
AcDbLine
 10
6968.293290662032
 20
2692.394649598654
 30
0.0
 11
6968.158290662032
 21
2692.394649598654
 31
0.0
  0
LINE
  5
190F
330
1F
100
AcDbEntity
  8
SANINDUSA
100
AcDbLine
 10
6967.998290662032
 20
2692.094649598654
 30
0.0
 11
6968.158290662032
 21
2692.094649598654
 31
0.0
  0
LINE
  5
1912
330
1F
100
AcDbEntity
  8
SANINDUSA
100
AcDbLine
 10
6967.998290662032
 20
2692.107821694837
 30
0.0
 11
6967.998290662032
 21
2692.094649598654
 31
0.0
  0
LINE
  5
1913
330
1F
100
AcDbEntity
  8
SANINDUSA
100
AcDbLine
 10
6968.308489346185
 20
2692.097649598654
 30
0.0
 11
6968.308489346185
 21
2692.094649598654
 31
0.0
  0
LINE
  5
1914
330
1F
100
AcDbEntity
  8
SANINDUSA
100
AcDbLine
 10
6968.158290662032
 20
2692.094649598654
 30
0.0
 11
6968.308489346185
 21
2692.094649598654
 31
0.0
  0
LINE
  5
1916
330
1F
100
AcDbEntity
  8
SANINDUSA
100
AcDbLine
 10
6967.998290662032
 20
2692.354596102314
 30
0.0
 11
6967.998290662032
 21
2692.134703094994
 31
0.0
  0
LINE
  5
1918
330
1F
100
AcDbEntity
  8
SANINDUSA
100
AcDbLine
 10
6967.998290662032
 20
2692.134703094994
 30
0.0
 11
6967.998290662032
 21
2692.107821694837
 31
0.0
  0
ARC
  5
1919
330
1F
100
AcDbEntity
  8
SANINDUSA
100
AcDbCircle
 10
6968.001290662032
 20
2692.391649598654
 30
0.0
 40
0.0030000000000001
100
AcDbArc
 50
90.0
 51
180.0
  0
LINE
  5
191A
330
1F
100
AcDbEntity
  8
SANINDUSA
100
AcDbLine
 10
6967.998290662032
 20
2692.391649598654
 30
0.0
 11
6967.998290662032
 21
2692.354596102314
 31
0.0
  0
ENDSEC
  0
SECTION
  2
OBJECTS
  0
DICTIONARY
  5
C
330
0
100
AcDbDictionary
281
     1
  3
ACAD_2007HEADERVARS_RT
350
1CEA
  3
ACAD_COLOR
350
EE6
  3
ACAD_GROUP
350
D
  3
ACAD_LAYOUT
350
1A
  3
ACAD_MATERIAL
350
EE5
  3
ACAD_MLEADERSTYLE
350
10A8
  3
ACAD_MLINESTYLE
350
17
  3
ACAD_PLOTSETTINGS
350
19
  3
ACAD_PLOTSTYLENAME
350
E
  3
ACAD_SCALELIST
350
1096
  3
ACAD_TABLESTYLE
350
EE7
  3
ACAD_VISUALSTYLE
350
1082
  3
ACDB_RECOMPOSE_DATA
350
1CE8
  3
AcDbVariableDictionary
350
3D
  3
AEC_PROPERTY_SET_DEFS
350
1425
  3
ASE_INDEX_DICTIONARY
350
1066
  3
Autodesk_PNP
350
10B2
  3
DWGPROPS
350
1CE9
  0
DICTIONARY
  5
1051
330
2
100
AcDbDictionary
280
     1
281
     1
  3
ACAD_LAYERFILTERS
360
1065
  3
ACLYDICTIONARY
360
1064
  0
DICTIONARY
  5
1C75
330
10
100
AcDbDictionary
280
     1
281
     1
  3
ADSK_XREC_LAYER_RECONCILED
360
1C76
  0
DICTIONARY
  5
1C77
330
2F
100
AcDbDictionary
280
     1
281
     1
  3
ADSK_XREC_LAYER_RECONCILED
360
1C78
  0
DICTIONARY
  5
1C79
330
30
100
AcDbDictionary
280
     1
281
     1
  3
ADSK_XREC_LAYER_RECONCILED
360
1C7A
  0
DICTIONARY
  5
1C7B
330
31
100
AcDbDictionary
280
     1
281
     1
  3
ADSK_XREC_LAYER_RECONCILED
360
1C7C
  0
DICTIONARY
  5
1C7D
330
32
100
AcDbDictionary
280
     1
281
     1
  3
ADSK_XREC_LAYER_RECONCILED
360
1C7E
  0
DICTIONARY
  5
1C7F
330
33
100
AcDbDictionary
280
     1
281
     1
  3
ADSK_XREC_LAYER_RECONCILED
360
1C80
  0
DICTIONARY
  5
1C81
330
34
100
AcDbDictionary
280
     1
281
     1
  3
ADSK_XREC_LAYER_RECONCILED
360
1C82
  0
DICTIONARY
  5
1C83
330
35
100
AcDbDictionary
280
     1
281
     1
  3
ADSK_XREC_LAYER_RECONCILED
360
1C84
  0
DICTIONARY
  5
1C85
330
36
100
AcDbDictionary
280
     1
281
     1
  3
ADSK_XREC_LAYER_RECONCILED
360
1C86
  0
DICTIONARY
  5
1C87
330
37
100
AcDbDictionary
280
     1
281
     1
  3
ADSK_XREC_LAYER_RECONCILED
360
1C88
  0
DICTIONARY
  5
1C89
330
5D6
100
AcDbDictionary
280
     1
281
     1
  3
ADSK_XREC_LAYER_RECONCILED
360
1C8A
  0
DICTIONARY
  5
1C8B
330
8AF
100
AcDbDictionary
280
     1
281
     1
  3
ADSK_XREC_LAYER_RECONCILED
360
1C8C
  0
DICTIONARY
  5
1C8D
330
8F8
100
AcDbDictionary
280
     1
281
     1
  3
ADSK_XREC_LAYER_RECONCILED
360
1C8E
  0
DICTIONARY
  5
1C8F
330
91D
100
AcDbDictionary
280
     1
281
     1
  3
ADSK_XREC_LAYER_RECONCILED
360
1C90
  0
DICTIONARY
  5
1C91
330
C7B
100
AcDbDictionary
280
     1
281
     1
  3
ADSK_XREC_LAYER_RECONCILED
360
1C92
  0
DICTIONARY
  5
1C93
330
1060
100
AcDbDictionary
280
     1
281
     1
  3
ADSK_XREC_LAYER_RECONCILED
360
1C94
  0
DICTIONARY
  5
1D1D
330
117D
100
AcDbDictionary
280
     1
281
     1
  3
ACAD_MTEXT_RT
360
1D1E
  0
DICTIONARY
  5
1D1F
330
11C1
100
AcDbDictionary
280
     1
281
     1
  3
ACAD_MTEXT_RT
360
1D20
  0
DICTIONARY
  5
1D21
330
11CD
100
AcDbDictionary
280
     1
281
     1
  3
ACAD_MTEXT_RT
360
1D22
  0
DICTIONARY
  5
1D23
330
11D9
100
AcDbDictionary
280
     1
281
     1
  3
ACAD_MTEXT_RT
360
1D24
  0
DICTIONARY
  5
1D25
330
123B
100
AcDbDictionary
280
     1
281
     1
  3
ACAD_MTEXT_RT
360
1D26
  0
DICTIONARY
  5
1D29
330
1C5F
100
AcDbDictionary
280
     1
281
     1
  3
ACAD_MTEXT_RT
360
1D2A
  0
DICTIONARY
  5
1D27
330
1ADA
100
AcDbDictionary
280
     1
281
     1
  3
ACAD_MTEXT_RT
360
1D28
  0
DICTIONARY
  5
1CEA
102
{ACAD_REACTORS
330
C
102
}
330
C
100
AcDbDictionary
281
     1
  3
DIMJOGANG
350
1CEB
  0
DICTIONARY
  5
EE6
102
{ACAD_REACTORS
330
C
102
}
330
C
100
AcDbDictionary
281
     1
  0
DICTIONARY
  5
D
102
{ACAD_REACTORS
330
C
102
}
330
C
100
AcDbDictionary
281
     1
  0
DICTIONARY
  5
1A
102
{ACAD_REACTORS
330
C
102
}
330
C
100
AcDbDictionary
281
     1
  3
Layout1
350
1E
  3
Layout2
350
26
  3
Model
350
22
  0
DICTIONARY
  5
EE5
102
{ACAD_REACTORS
330
C
102
}
330
C
100
AcDbDictionary
281
     1
  3
ByBlock
350
1072
  3
ByLayer
350
106A
  3
Global
350
107A
  0
DICTIONARY
  5
10A8
102
{ACAD_REACTORS
330
C
102
}
330
C
100
AcDbDictionary
281
     1
  3
Standard
350
10A9
  0
DICTIONARY
  5
17
102
{ACAD_REACTORS
330
C
102
}
330
C
100
AcDbDictionary
281
     1
  3
Standard
350
18
  0
DICTIONARY
  5
19
102
{ACAD_REACTORS
330
C
102
}
330
C
100
AcDbDictionary
281
     1
  0
ACDBDICTIONARYWDFLT
  5
E
102
{ACAD_REACTORS
330
C
102
}
330
C
100
AcDbDictionary
281
     1
  3
Normal
350
F
100
AcDbDictionaryWithDefault
340
F
  0
DICTIONARY
  5
1096
102
{ACAD_REACTORS
330
C
102
}
330
C
100
AcDbDictionary
281
     1
  3
A0
350
1097
  3
A1
350
1098
  3
A2
350
1099
  3
A3
350
109A
  3
A4
350
109B
  3
A5
350
109C
  3
A6
350
109D
  3
A7
350
109E
  3
A8
350
109F
  3
A9
350
10A0
  3
B0
350
10A1
  3
B1
350
10A2
  3
B2
350
10A3
  3
B3
350
10A4
  3
B4
350
10A5
  3
B5
350
10A6
  3
B6
350
10A7
  0
DICTIONARY
  5
EE7
102
{ACAD_REACTORS
330
C
102
}
330
C
100
AcDbDictionary
281
     1
  3
Standard
350
EE8
  0
DICTIONARY
  5
1082
102
{ACAD_REACTORS
330
C
102
}
330
C
100
AcDbDictionary
281
     1
  3
2dWireframe
350
1088
  3
3D Hidden
350
108A
  3
3dWireframe
350
1089
  3
Basic
350
1087
  3
Brighten
350
108E
  3
ColorChange
350
1092
  3
Conceptual
350
108B
  3
Dim
350
108D
  3
EdgeColorOff
350
1095
  3
Facepattern
350
1091
  3
Flat
350
1083
  3
FlatWithEdges
350
1084
  3
Gouraud
350
1085
  3
GouraudWithEdges
350
1086
  3
JitterOff
350
1093
  3
Linepattern
350
1090
  3
OverhangOff
350
1094
  3
Realistic
350
108C
  3
Thicken
350
108F
  0
XRECORD
  5
1CE8
102
{ACAD_REACTORS
330
C
102
}
330
C
100
AcDbXrecord
280
     1
 90
        1
330
EE8
  0
DICTIONARY
  5
3D
102
{ACAD_REACTORS
330
C
102
}
330
C
100
AcDbDictionary
281
     1
  3
CANNOSCALE
350
1CE2
  3
CMLEADERSTYLE
350
1CE1
  3
CTABLESTYLE
350
1049
  3
DIMASSOC
350
3F
  3
HIDETEXT
350
3E
  3
INDEXCTL
350
1CE4
  3
SORTENTS
350
1CE3
  3
XCLIPFRAME
350
1CE5
  0
DICTIONARY
  5
1425
102
{ACAD_REACTORS
330
C
102
}
330
C
100
AcDbDictionary
281
     1
  0
DICTIONARY
  5
1066
102
{ACAD_REACTORS
330
C
102
}
330
C
100
AcDbDictionary
281
     1
  3
ASEBlockHierarchyIndexRecord
350
1067
1001
DCO15
1040
1602247867.484
  0
DICTIONARY
  5
10B2
102
{ACAD_REACTORS
330
C
102
}
330
C
100
AcDbDictionary
281
     1
  0
XRECORD
  5
1CE9
102
{ACAD_REACTORS
330
C
102
}
330
C
100
AcDbXrecord
280
     1
  1
DWGPROPS COOKIE
  2

  3

  4

  6

  7

  8
Julio
  9

300
=
301
=
302
=
303
=
304
=
305
=
306
=
307
=
308
=
309
=
 40
0.0023945601851852
 41
2455296.500854491
 42
2455296.503248877
  1

 90
        0
  0
DICTIONARY
  5
1065
102
{ACAD_REACTORS
330
1051
102
}
330
1051
100
AcDbDictionary
281
     1
  0
DICTIONARY
  5
1064
102
{ACAD_REACTORS
330
1051
102
}
330
1051
100
AcDbDictionary
281
     1
1001
ACAD
1000
<All
  0
XRECORD
  5
1C76
102
{ACAD_REACTORS
330
1C75
102
}
330
1C75
100
AcDbXrecord
280
     1
290
     1
  0
XRECORD
  5
1C78
102
{ACAD_REACTORS
330
1C77
102
}
330
1C77
100
AcDbXrecord
280
     1
290
     1
  0
XRECORD
  5
1C7A
102
{ACAD_REACTORS
330
1C79
102
}
330
1C79
100
AcDbXrecord
280
     1
290
     1
  0
XRECORD
  5
1C7C
102
{ACAD_REACTORS
330
1C7B
102
}
330
1C7B
100
AcDbXrecord
280
     1
290
     1
  0
XRECORD
  5
1C7E
102
{ACAD_REACTORS
330
1C7D
102
}
330
1C7D
100
AcDbXrecord
280
     1
290
     1
  0
XRECORD
  5
1C80
102
{ACAD_REACTORS
330
1C7F
102
}
330
1C7F
100
AcDbXrecord
280
     1
290
     1
  0
XRECORD
  5
1C82
102
{ACAD_REACTORS
330
1C81
102
}
330
1C81
100
AcDbXrecord
280
     1
290
     1
  0
XRECORD
  5
1C84
102
{ACAD_REACTORS
330
1C83
102
}
330
1C83
100
AcDbXrecord
280
     1
290
     1
  0
XRECORD
  5
1C86
102
{ACAD_REACTORS
330
1C85
102
}
330
1C85
100
AcDbXrecord
280
     1
290
     1
  0
XRECORD
  5
1C88
102
{ACAD_REACTORS
330
1C87
102
}
330
1C87
100
AcDbXrecord
280
     1
290
     1
  0
XRECORD
  5
1C8A
102
{ACAD_REACTORS
330
1C89
102
}
330
1C89
100
AcDbXrecord
280
     1
290
     1
  0
XRECORD
  5
1C8C
102
{ACAD_REACTORS
330
1C8B
102
}
330
1C8B
100
AcDbXrecord
280
     1
290
     1
  0
XRECORD
  5
1C8E
102
{ACAD_REACTORS
330
1C8D
102
}
330
1C8D
100
AcDbXrecord
280
     1
290
     1
  0
XRECORD
  5
1C90
102
{ACAD_REACTORS
330
1C8F
102
}
330
1C8F
100
AcDbXrecord
280
     1
290
     1
  0
XRECORD
  5
1C92
102
{ACAD_REACTORS
330
1C91
102
}
330
1C91
100
AcDbXrecord
280
     1
290
     1
  0
XRECORD
  5
1C94
102
{ACAD_REACTORS
330
1C93
102
}
330
1C93
100
AcDbXrecord
280
     1
290
     1
  0
XRECORD
  5
1D1E
102
{ACAD_REACTORS
330
1D1D
102
}
330
1D1D
100
AcDbXrecord
280
     1
 40
2507.0
  1
ø70
  0
XRECORD
  5
1D20
102
{ACAD_REACTORS
330
1D1F
102
}
330
1D1F
100
AcDbXrecord
280
     1
 40
2385.0
  1
\U+220535
  0
XRECORD
  5
1D22
102
{ACAD_REACTORS
330
1D21
102
}
330
1D21
100
AcDbXrecord
280
     1
 40
3763.0
  1
86,0°
  0
XRECORD
  5
1D24
102
{ACAD_REACTORS
330
1D23
102
}
330
1D23
100
AcDbXrecord
280
     1
 40
3767.0
  1
88,0°
  0
XRECORD
  5
1D26
102
{ACAD_REACTORS
330
1D25
102
}
330
1D25
100
AcDbXrecord
280
     1
 40
3768.0
  1
98,0°
  0
XRECORD
  5
1D2A
102
{ACAD_REACTORS
330
1D29
102
}
330
1D29
100
AcDbXrecord
280
     1
 40
2507.0
  1
ø70
  0
XRECORD
  5
1D28
102
{ACAD_REACTORS
330
1D27
102
}
330
1D27
100
AcDbXrecord
280
     1
 40
2385.0
  1
\U+220535
  0
XRECORD
  5
1CEB
102
{ACAD_REACTORS
330
1CEA
102
}
330
1CEA
100
AcDbXrecord
280
     1
 40
1.570796326794896
  0
LAYOUT
  5
1E
102
{ACAD_XDICTIONARY
360
1CEC
102
}
102
{ACAD_REACTORS
330
1A
102
}
330
1A
100
AcDbPlotSettings
  1

  2
Ploter HP500
  4

  6

 40
0.0
 41
0.0
 42
0.0
 43
0.0
 44
0.0
 45
0.0
 46
0.0
 47
0.0
 48
0.0
 49
0.0
140
0.0
141
0.0
142
1.0
143
1.0
 70
   688
 72
     0
 73
     0
 74
     5
  7
sanindusa.ctb
 75
    16
147
1.0
148
0.0
149
0.0
100
AcDbLayout
  1
Layout1
 70
     1
 71
     1
 10
0.0
 20
0.0
 11
420.0
 21
297.0
 12
0.0
 22
0.0
 32
0.0
 14
1.000000000000000E+20
 24
1.000000000000000E+20
 34
1.000000000000000E+20
 15
-1.000000000000000E+20
 25
-1.000000000000000E+20
 35
-1.000000000000000E+20
146
0.0
 13
0.0
 23
0.0
 33
0.0
 16
1.0
 26
0.0
 36
0.0
 17
0.0
 27
1.0
 37
0.0
 76
     0
330
1B
  0
LAYOUT
  5
26
102
{ACAD_XDICTIONARY
360
1CF0
102
}
102
{ACAD_REACTORS
330
1A
102
}
330
1A
100
AcDbPlotSettings
  1

  2
Ploter HP500
  4

  6

 40
0.0
 41
0.0
 42
0.0
 43
0.0
 44
0.0
 45
0.0
 46
0.0
 47
0.0
 48
0.0
 49
0.0
140
0.0
141
0.0
142
1.0
143
1.0
 70
   688
 72
     0
 73
     0
 74
     5
  7
sanindusa.ctb
 75
    16
147
1.0
148
0.0
149
0.0
100
AcDbLayout
  1
Layout2
 70
     1
 71
     2
 10
0.0
 20
0.0
 11
12.0
 21
9.0
 12
0.0
 22
0.0
 32
0.0
 14
0.0
 24
0.0
 34
0.0
 15
0.0
 25
0.0
 35
0.0
146
0.0
 13
0.0
 23
0.0
 33
0.0
 16
1.0
 26
0.0
 36
0.0
 17
0.0
 27
1.0
 37
0.0
 76
     0
330
23
  0
LAYOUT
  5
22
102
{ACAD_XDICTIONARY
360
1CEE
102
}
102
{ACAD_REACTORS
330
1A
102
}
330
1A
100
AcDbPlotSettings
  1

  2
Ploter HP500
  4
User268
  6

 40
4.995333194732666
 41
16.97565841674804
 42
4.995330810546875
 43
16.97567749023437
 44
209.9733276367187
 45
296.9259948730469
 46
0.0
 47
0.0
 48
0.0
 49
0.0
140
0.0
141
0.0
142
1.0
143
1.0
 70
 11952
 72
     1
 73
     1
 74
     0
  7
sanindusa.ctb
 75
     0
147
1.0
148
-427.5957866592534
149
7.362384574453926
100
AcDbLayout
  1
Model
 70
     1
 71
     0
 10
0.0
 20
0.0
 11
12.0
 21
9.0
 12
0.0
 22
0.0
 32
0.0
 14
0.0
 24
0.0
 34
0.0
 15
0.0
 25
0.0
 35
0.0
146
0.0
 13
0.0
 23
0.0
 33
0.0
 16
1.0
 26
0.0
 36
0.0
 17
0.0
 27
1.0
 37
0.0
 76
     0
330
1F
331
1068
  0
MATERIAL
  5
1072
102
{ACAD_XDICTIONARY
360
1073
102
}
102
{ACAD_REACTORS
330
EE5
102
}
330
EE5
100
AcDbMaterial
  1
ByBlock
 72
     0
 43
0.0008202099737533
 43
0.0
 43
0.0
 43
0.0
 43
0.0
 43
0.0008202099737533
 43
0.0
 43
0.0
 43
0.0
 43
0.0
 43
1.0
 43
0.0
 43
0.0
 43
0.0
 43
0.0
 43
1.0
 77
     0
 47
0.0008202099737533
 47
0.0
 47
0.0
 47
0.0
 47
0.0
 47
0.0008202099737533
 47
0.0
 47
0.0
 47
0.0
 47
0.0
 47
1.0
 47
0.0
 47
0.0
 47
0.0
 47
0.0
 47
1.0
171
     0
 49
0.0008202099737533
 49
0.0
 49
0.0
 49
0.0
 49
0.0
 49
0.0008202099737533
 49
0.0
 49
0.0
 49
0.0
 49
0.0
 49
1.0
 49
0.0
 49
0.0
 49
0.0
 49
0.0
 49
1.0
175
     0
142
0.0008202099737533
142
0.0
142
0.0
142
0.0
142
0.0
142
0.0008202099737533
142
0.0
142
0.0
142
0.0
142
0.0
142
1.0
142
0.0
142
0.0
142
0.0
142
0.0
142
1.0
179
     0
144
0.0008202099737533
144
0.0
144
0.0
144
0.0
144
0.0
144
0.0008202099737533
144
0.0
144
0.0
144
0.0
144
0.0
144
1.0
144
0.0
144
0.0
144
0.0
144
0.0
144
1.0
147
0.0008202099737533
147
0.0
147
0.0
147
0.0
147
0.0
147
0.0008202099737533
147
0.0
147
0.0
147
0.0
147
0.0
147
1.0
147
0.0
147
0.0
147
0.0
147
0.0
147
1.0
  0
MATERIAL
  5
106A
102
{ACAD_XDICTIONARY
360
106B
102
}
102
{ACAD_REACTORS
330
EE5
102
}
330
EE5
100
AcDbMaterial
  1
ByLayer
 72
     0
 43
0.0008202099737533
 43
0.0
 43
0.0
 43
0.0
 43
0.0
 43
0.0008202099737533
 43
0.0
 43
0.0
 43
0.0
 43
0.0
 43
1.0
 43
0.0
 43
0.0
 43
0.0
 43
0.0
 43
1.0
 77
     0
 47
0.0008202099737533
 47
0.0
 47
0.0
 47
0.0
 47
0.0
 47
0.0008202099737533
 47
0.0
 47
0.0
 47
0.0
 47
0.0
 47
1.0
 47
0.0
 47
0.0
 47
0.0
 47
0.0
 47
1.0
171
     0
 49
0.0008202099737533
 49
0.0
 49
0.0
 49
0.0
 49
0.0
 49
0.0008202099737533
 49
0.0
 49
0.0
 49
0.0
 49
0.0
 49
1.0
 49
0.0
 49
0.0
 49
0.0
 49
0.0
 49
1.0
175
     0
142
0.0008202099737533
142
0.0
142
0.0
142
0.0
142
0.0
142
0.0008202099737533
142
0.0
142
0.0
142
0.0
142
0.0
142
1.0
142
0.0
142
0.0
142
0.0
142
0.0
142
1.0
179
     0
144
0.0008202099737533
144
0.0
144
0.0
144
0.0
144
0.0
144
0.0008202099737533
144
0.0
144
0.0
144
0.0
144
0.0
144
1.0
144
0.0
144
0.0
144
0.0
144
0.0
144
1.0
147
0.0008202099737533
147
0.0
147
0.0
147
0.0
147
0.0
147
0.0008202099737533
147
0.0
147
0.0
147
0.0
147
0.0
147
1.0
147
0.0
147
0.0
147
0.0
147
0.0
147
1.0
  0
MATERIAL
  5
107A
102
{ACAD_XDICTIONARY
360
107B
102
}
102
{ACAD_REACTORS
330
EE5
102
}
330
EE5
100
AcDbMaterial
  1
Global
 72
     0
 43
0.0008202099737533
 43
0.0
 43
0.0
 43
0.0
 43
0.0
 43
0.0008202099737533
 43
0.0
 43
0.0
 43
0.0
 43
0.0
 43
1.0
 43
0.0
 43
0.0
 43
0.0
 43
0.0
 43
1.0
 77
     0
 47
0.0008202099737533
 47
0.0
 47
0.0
 47
0.0
 47
0.0
 47
0.0008202099737533
 47
0.0
 47
0.0
 47
0.0
 47
0.0
 47
1.0
 47
0.0
 47
0.0
 47
0.0
 47
0.0
 47
1.0
171
     0
 49
0.0008202099737533
 49
0.0
 49
0.0
 49
0.0
 49
0.0
 49
0.0008202099737533
 49
0.0
 49
0.0
 49
0.0
 49
0.0
 49
1.0
 49
0.0
 49
0.0
 49
0.0
 49
0.0
 49
1.0
175
     0
142
0.0008202099737533
142
0.0
142
0.0
142
0.0
142
0.0
142
0.0008202099737533
142
0.0
142
0.0
142
0.0
142
0.0
142
1.0
142
0.0
142
0.0
142
0.0
142
0.0
142
1.0
179
     0
144
0.0008202099737533
144
0.0
144
0.0
144
0.0
144
0.0
144
0.0008202099737533
144
0.0
144
0.0
144
0.0
144
0.0
144
1.0
144
0.0
144
0.0
144
0.0
144
0.0
144
1.0
147
0.0008202099737533
147
0.0
147
0.0
147
0.0
147
0.0
147
0.0008202099737533
147
0.0
147
0.0
147
0.0
147
0.0
147
1.0
147
0.0
147
0.0
147
0.0
147
0.0
147
1.0
  0
MLEADERSTYLE
  5
10A9
102
{ACAD_REACTORS
330
10A8
102
}
330
10A8
100
AcDbMLeaderStyle
170
     2
171
     1
172
     0
 90
        2
 40
0.0
 41
0.0
173
     1
 91
-1056964608
340
14
 92
       -2
290
     1
 42
2.0
291
     1
 43
0.36
  3
Standard
 44
4.0
300

342
11
174
     1
178
     6
175
     1
176
     0
 93
-1056964608
 45
4.0
292
     0
297
     0
 46
4.0
 94
-1056964608
 47
1.0
 49
1.0
140
1.0
293
     1
141
0.0
294
     1
177
     0
142
1.0
295
     0
296
     0
143
0.125
1001
ACAD_MLEADERVER
1070
     2
  0
MLINESTYLE
  5
18
102
{ACAD_REACTORS
330
17
102
}
330
17
100
AcDbMlineStyle
  2
STANDARD
 70
     0
  3

 62
   256
 51
90.0
 52
90.0
 71
     2
 49
0.5
 62
   256
  6
BYLAYER
 49
-0.5
 62
   256
  6
BYLAYER
  0
ACDBPLACEHOLDER
  5
F
102
{ACAD_REACTORS
330
E
102
}
330
E
  0
SCALE
  5
1097
102
{ACAD_REACTORS
330
1096
102
}
330
1096
100
AcDbScale
 70
     0
300
1:1
140
1.0
141
1.0
290
     1
  0
SCALE
  5
1098
102
{ACAD_REACTORS
330
1096
102
}
330
1096
100
AcDbScale
 70
     0
300
1:2
140
1.0
141
2.0
290
     0
  0
SCALE
  5
1099
102
{ACAD_REACTORS
330
1096
102
}
330
1096
100
AcDbScale
 70
     0
300
1:4
140
1.0
141
4.0
290
     0
  0
SCALE
  5
109A
102
{ACAD_REACTORS
330
1096
102
}
330
1096
100
AcDbScale
 70
     0
300
1:5
140
1.0
141
5.0
290
     0
  0
SCALE
  5
109B
102
{ACAD_REACTORS
330
1096
102
}
330
1096
100
AcDbScale
 70
     0
300
1:8
140
1.0
141
8.0
290
     0
  0
SCALE
  5
109C
102
{ACAD_REACTORS
330
1096
102
}
330
1096
100
AcDbScale
 70
     0
300
1:10
140
1.0
141
10.0
290
     0
  0
SCALE
  5
109D
102
{ACAD_REACTORS
330
1096
102
}
330
1096
100
AcDbScale
 70
     0
300
1:16
140
1.0
141
16.0
290
     0
  0
SCALE
  5
109E
102
{ACAD_REACTORS
330
1096
102
}
330
1096
100
AcDbScale
 70
     0
300
1:20
140
1.0
141
20.0
290
     0
  0
SCALE
  5
109F
102
{ACAD_REACTORS
330
1096
102
}
330
1096
100
AcDbScale
 70
     0
300
1:30
140
1.0
141
30.0
290
     0
  0
SCALE
  5
10A0
102
{ACAD_REACTORS
330
1096
102
}
330
1096
100
AcDbScale
 70
     0
300
1:40
140
1.0
141
40.0
290
     0
  0
SCALE
  5
10A1
102
{ACAD_REACTORS
330
1096
102
}
330
1096
100
AcDbScale
 70
     0
300
1:50
140
1.0
141
50.0
290
     0
  0
SCALE
  5
10A2
102
{ACAD_REACTORS
330
1096
102
}
330
1096
100
AcDbScale
 70
     0
300
1:100
140
1.0
141
100.0
290
     0
  0
SCALE
  5
10A3
102
{ACAD_REACTORS
330
1096
102
}
330
1096
100
AcDbScale
 70
     0
300
2:1
140
2.0
141
1.0
290
     0
  0
SCALE
  5
10A4
102
{ACAD_REACTORS
330
1096
102
}
330
1096
100
AcDbScale
 70
     0
300
4:1
140
4.0
141
1.0
290
     0
  0
SCALE
  5
10A5
102
{ACAD_REACTORS
330
1096
102
}
330
1096
100
AcDbScale
 70
     0
300
8:1
140
8.0
141
1.0
290
     0
  0
SCALE
  5
10A6
102
{ACAD_REACTORS
330
1096
102
}
330
1096
100
AcDbScale
 70
     0
300
10:1
140
10.0
141
1.0
290
     0
  0
SCALE
  5
10A7
102
{ACAD_REACTORS
330
1096
102
}
330
1096
100
AcDbScale
 70
     0
300
100:1
140
100.0
141
1.0
290
     0
  0
TABLESTYLE
  5
EE8
102
{ACAD_XDICTIONARY
360
1CE6
102
}
102
{ACAD_REACTORS
330
EE7
102
}
330
EE7
100
AcDbTableStyle
  3
Standard
 70
     0
 71
     0
 40
1.5
 41
1.5
280
     0
281
     0
  7
Standard
140
4.5
170
     2
 62
     0
 63
     7
283
     0
274
    -2
284
     1
 64
     0
275
    -2
285
     1
 65
     0
276
    -2
286
     1
 66
     0
277
    -2
287
     1
 67
     0
278
    -2
288
     1
 68
     0
279
    -2
289
     1
 69
     0
  7
Standard
140
6.0
170
     5
 62
     0
 63
     7
283
     0
274
    -2
284
     1
 64
     0
275
    -2
285
     1
 65
     0
276
    -2
286
     1
 66
     0
277
    -2
287
     1
 67
     0
278
    -2
288
     1
 68
     0
279
    -2
289
     1
 69
     0
  7
Standard
140
4.5
170
     5
 62
     0
 63
     7
283
     0
274
    -2
284
     1
 64
     0
275
    -2
285
     1
 65
     0
276
    -2
286
     1
 66
     0
277
    -2
287
     1
 67
     0
278
    -2
288
     1
 68
     0
279
    -2
289
     1
 69
     0
  0
VISUALSTYLE
  5
1088
102
{ACAD_XDICTIONARY
360
1D00
102
}
102
{ACAD_REACTORS
330
1082
102
}
330
1082
100
AcDbVisualStyle
  2
2dWireframe
 70
     4
 71
     0
 72
     2
 73
     0
 90
        0
 40
-0.6
 41
-30.0
 62
     5
 63
     7
 74
     1
 91
        4
 64
     7
 65
   257
 75
     1
175
     1
 42
1.0
 92
        0
 66
   257
 43
1.0
 76
     1
 77
     6
 78
     2
 67
     7
 79
     5
170
     0
171
     0
290
     0
174
     0
 93
        1
 44
0.0
173
     0
291
     0
 45
0.0
1001
ACAD
1000
AcDbSavedByObjectVersion
1070
     0
  0
VISUALSTYLE
  5
108A
102
{ACAD_XDICTIONARY
360
1D04
102
}
102
{ACAD_REACTORS
330
1082
102
}
330
1082
100
AcDbVisualStyle
  2
3D Hidden
 70
     6
 71
     1
 72
     2
 73
     2
 90
        0
 40
-0.6
 41
-30.0
 62
     5
 63
     7
 74
     2
 91
        2
 64
     7
 65
   257
 75
     2
175
     1
 42
179.0
 92
        0
 66
   257
 43
1.0
 76
     1
 77
     6
 78
     2
 67
     7
 79
     3
170
     0
171
     0
290
     0
174
     0
 93
        1
 44
0.0
173
     0
291
     0
 45
0.0
1001
ACAD
1000
AcDbSavedByObjectVersion
1070
     0
  0
VISUALSTYLE
  5
1089
102
{ACAD_XDICTIONARY
360
1D02
102
}
102
{ACAD_REACTORS
330
1082
102
}
330
1082
100
AcDbVisualStyle
  2
3dWireframe
 70
     5
 71
     0
 72
     2
 73
     0
 90
        0
 40
-0.6
 41
-30.0
 62
     5
 63
     7
 74
     1
 91
        4
 64
     7
 65
   257
 75
     1
175
     1
 42
1.0
 92
        0
 66
   257
 43
1.0
 76
     1
 77
     6
 78
     2
 67
     7
 79
     5
170
     0
171
     0
290
     0
174
     0
 93
        1
 44
0.0
173
     0
291
     0
 45
0.0
1001
ACAD
1000
AcDbSavedByObjectVersion
1070
     0
  0
VISUALSTYLE
  5
1087
102
{ACAD_XDICTIONARY
360
1CFE
102
}
102
{ACAD_REACTORS
330
1082
102
}
330
1082
100
AcDbVisualStyle
  2
Basic
 70
     7
 71
     1
 72
     0
 73
     1
 90
        0
 40
-0.6
 41
-30.0
 62
     5
 63
     7
 74
     0
 91
        4
 64
     7
 65
   257
 75
     1
175
     1
 42
1.0
 92
        8
 66
     7
 43
1.0
 76
     1
 77
     6
 78
     2
 67
     7
 79
     5
170
     0
171
     0
290
     0
174
     0
 93
        1
 44
0.0
173
     0
291
     1
 45
0.0
1001
ACAD
1000
AcDbSavedByObjectVersion
1070
     0
  0
VISUALSTYLE
  5
108E
102
{ACAD_XDICTIONARY
360
1D0C
102
}
102
{ACAD_REACTORS
330
1082
102
}
330
1082
100
AcDbVisualStyle
  2
Brighten
 70
    12
 71
     2
 72
     2
 73
     0
 90
        0
 40
-0.6
 41
-30.0
 62
     5
 63
     7
 74
     1
 91
        4
 64
     7
 65
   257
 75
     1
175
     1
 42
1.0
 92
        8
 66
     7
 43
1.0
 76
     1
 77
     6
 78
     2
 67
     7
 79
     5
170
     0
171
     0
290
     0
174
     0
 93
        1
 44
50.0
173
     0
291
     1
 45
0.0
1001
ACAD
1000
AcDbSavedByObjectVersion
1070
     0
  0
VISUALSTYLE
  5
1092
102
{ACAD_XDICTIONARY
360
1D14
102
}
102
{ACAD_REACTORS
330
1082
102
}
330
1082
100
AcDbVisualStyle
  2
ColorChange
 70
    16
 71
     2
 72
     2
 73
     3
 90
        0
 40
-0.6
 41
-30.0
 62
     5
 63
     8
 74
     1
 91
        4
 64
     7
 65
   257
 75
     1
175
     1
 42
1.0
 92
        8
 66
     8
 43
1.0
 76
     1
 77
     6
 78
     2
 67
     7
 79
     5
170
     0
171
     0
290
     0
174
     0
 93
        1
 44
0.0
173
     0
291
     1
 45
0.0
1001
ACAD
1000
AcDbSavedByObjectVersion
1070
     0
  0
VISUALSTYLE
  5
108B
102
{ACAD_XDICTIONARY
360
1D06
102
}
102
{ACAD_REACTORS
330
1082
102
}
330
1082
100
AcDbVisualStyle
  2
Conceptual
 70
     9
 71
     3
 72
     2
 73
     0
 90
        0
 40
-0.6
 41
-30.0
 62
     5
 63
     7
 74
     2
 91
        2
 64
     7
 65
   257
 75
     1
175
     1
 42
179.0
 92
        8
 66
     7
 43
1.0
 76
     1
 77
     6
 78
     2
 67
     7
 79
     3
170
     0
171
     0
290
     0
174
     0
 93
        1
 44
0.0
173
     0
291
     0
 45
0.0
1001
ACAD
1000
AcDbSavedByObjectVersion
1070
     0
  0
VISUALSTYLE
  5
108D
102
{ACAD_XDICTIONARY
360
1D0A
102
}
102
{ACAD_REACTORS
330
1082
102
}
330
1082
100
AcDbVisualStyle
  2
Dim
 70
    11
 71
     2
 72
     2
 73
     0
 90
        0
 40
-0.6
 41
-30.0
 62
     5
 63
     7
 74
     1
 91
        4
 64
     7
 65
   257
 75
     1
175
     1
 42
1.0
 92
        8
 66
     7
 43
1.0
 76
     1
 77
     6
 78
     2
 67
     7
 79
     5
170
     0
171
     0
290
     0
174
     0
 93
        1
 44
-50.0
173
     0
291
     1
 45
0.0
1001
ACAD
1000
AcDbSavedByObjectVersion
1070
     0
  0
VISUALSTYLE
  5
1095
102
{ACAD_XDICTIONARY
360
1D1A
102
}
102
{ACAD_REACTORS
330
1082
102
}
330
1082
100
AcDbVisualStyle
  2
EdgeColorOff
 70
    22
 71
     2
 72
     2
 73
     0
 90
        0
 40
-0.6
 41
-30.0
 62
     5
 63
     7
 74
     1
 91
        4
 64
     7
 65
   257
 75
     1
175
     1
 42
1.0
 92
        8
 66
     7
 43
1.0
 76
     1
 77
     6
 78
     2
 67
     7
 79
     5
170
     0
171
     0
290
     0
174
     0
 93
        1
 44
0.0
173
     0
291
     1
 45
0.0
1001
ACAD
1000
AcDbSavedByObjectVersion
1070
     0
  0
VISUALSTYLE
  5
1091
102
{ACAD_XDICTIONARY
360
1D12
102
}
102
{ACAD_REACTORS
330
1082
102
}
330
1082
100
AcDbVisualStyle
  2
Facepattern
 70
    15
 71
     2
 72
     2
 73
     0
 90
        0
 40
-0.6
 41
-30.0
 62
     5
 63
     7
 74
     1
 91
        4
 64
     7
 65
   257
 75
     1
175
     1
 42
1.0
 92
        8
 66
     7
 43
1.0
 76
     1
 77
     6
 78
     2
 67
     7
 79
     5
170
     0
171
     0
290
     0
174
     0
 93
        1
 44
0.0
173
     0
291
     1
 45
0.0
1001
ACAD
1000
AcDbSavedByObjectVersion
1070
     0
  0
VISUALSTYLE
  5
1083
102
{ACAD_XDICTIONARY
360
1CF6
102
}
102
{ACAD_REACTORS
330
1082
102
}
330
1082
100
AcDbVisualStyle
  2
Flat
 70
     0
 71
     2
 72
     1
 73
     1
 90
        2
 40
-0.6
 41
30.0
 62
     5
 63
     7
 74
     0
 91
        4
 64
     7
 65
   257
 75
     1
175
     1
 42
1.0
 92
        8
 66
     7
 43
1.0
 76
     1
 77
     6
 78
     2
 67
     7
 79
     5
170
     0
171
     0
290
     0
174
     0
 93
       13
 44
0.0
173
     0
291
     1
 45
0.0
1001
ACAD
1000
AcDbSavedByObjectVersion
1070
     0
  0
VISUALSTYLE
  5
1084
102
{ACAD_XDICTIONARY
360
1CF8
102
}
102
{ACAD_REACTORS
330
1082
102
}
330
1082
100
AcDbVisualStyle
  2
FlatWithEdges
 70
     1
 71
     2
 72
     1
 73
     1
 90
        2
 40
-0.6
 41
30.0
 62
     5
 63
     7
 74
     1
 91
        4
 64
     7
 65
   257
 75
     1
175
     1
 42
1.0
 92
        0
 66
   257
 43
1.0
 76
     1
 77
     6
 78
     2
 67
     7
 79
     5
170
     0
171
     0
290
     0
174
     0
 93
       13
 44
0.0
173
     0
291
     1
 45
0.0
1001
ACAD
1000
AcDbSavedByObjectVersion
1070
     0
  0
VISUALSTYLE
  5
1085
102
{ACAD_XDICTIONARY
360
1CFA
102
}
102
{ACAD_REACTORS
330
1082
102
}
330
1082
100
AcDbVisualStyle
  2
Gouraud
 70
     2
 71
     2
 72
     2
 73
     1
 90
        2
 40
-0.6
 41
30.0
 62
     5
 63
     7
 74
     0
 91
        4
 64
     7
 65
   257
 75
     1
175
     1
 42
1.0
 92
        0
 66
     7
 43
1.0
 76
     1
 77
     6
 78
     2
 67
     7
 79
     5
170
     0
171
     0
290
     0
174
     0
 93
       13
 44
0.0
173
     0
291
     1
 45
0.0
1001
ACAD
1000
AcDbSavedByObjectVersion
1070
     0
  0
VISUALSTYLE
  5
1086
102
{ACAD_XDICTIONARY
360
1CFC
102
}
102
{ACAD_REACTORS
330
1082
102
}
330
1082
100
AcDbVisualStyle
  2
GouraudWithEdges
 70
     3
 71
     2
 72
     2
 73
     1
 90
        2
 40
-0.6
 41
30.0
 62
     5
 63
     7
 74
     1
 91
        4
 64
     7
 65
   257
 75
     1
175
     1
 42
1.0
 92
        0
 66
   257
 43
1.0
 76
     1
 77
     6
 78
     2
 67
     7
 79
     5
170
     0
171
     0
290
     0
174
     0
 93
       13
 44
0.0
173
     0
291
     1
 45
0.0
1001
ACAD
1000
AcDbSavedByObjectVersion
1070
     0
  0
VISUALSTYLE
  5
1093
102
{ACAD_XDICTIONARY
360
1D16
102
}
102
{ACAD_REACTORS
330
1082
102
}
330
1082
100
AcDbVisualStyle
  2
JitterOff
 70
    20
 71
     2
 72
     2
 73
     0
 90
        0
 40
-0.6
 41
-30.0
 62
     5
 63
     7
 74
     1
 91
        4
 64
     7
 65
   257
 75
     1
175
     1
 42
1.0
 92
       10
 66
     7
 43
1.0
 76
     1
 77
     6
 78
     2
 67
     7
 79
     5
170
     0
171
     0
290
     0
174
     0
 93
        1
 44
0.0
173
     0
291
     1
 45
0.0
1001
ACAD
1000
AcDbSavedByObjectVersion
1070
     0
  0
VISUALSTYLE
  5
1090
102
{ACAD_XDICTIONARY
360
1D10
102
}
102
{ACAD_REACTORS
330
1082
102
}
330
1082
100
AcDbVisualStyle
  2
Linepattern
 70
    14
 71
     2
 72
     2
 73
     0
 90
        0
 40
-0.6
 41
-30.0
 62
     5
 63
     7
 74
     1
 91
        4
 64
     7
 65
   257
 75
     7
175
     7
 42
1.0
 92
        8
 66
     7
 43
1.0
 76
     1
 77
     6
 78
     2
 67
     7
 79
     5
170
     0
171
     0
290
     0
174
     0
 93
        1
 44
0.0
173
     0
291
     1
 45
0.0
1001
ACAD
1000
AcDbSavedByObjectVersion
1070
     0
  0
VISUALSTYLE
  5
1094
102
{ACAD_XDICTIONARY
360
1D18
102
}
102
{ACAD_REACTORS
330
1082
102
}
330
1082
100
AcDbVisualStyle
  2
OverhangOff
 70
    21
 71
     2
 72
     2
 73
     0
 90
        0
 40
-0.6
 41
-30.0
 62
     5
 63
     7
 74
     1
 91
        4
 64
     7
 65
   257
 75
     1
175
     1
 42
1.0
 92
        9
 66
     7
 43
1.0
 76
     1
 77
     6
 78
     2
 67
     7
 79
     5
170
     0
171
     0
290
     0
174
     0
 93
        1
 44
0.0
173
     0
291
     1
 45
0.0
1001
ACAD
1000
AcDbSavedByObjectVersion
1070
     0
  0
VISUALSTYLE
  5
108C
102
{ACAD_XDICTIONARY
360
1D08
102
}
102
{ACAD_REACTORS
330
1082
102
}
330
1082
100
AcDbVisualStyle
  2
Realistic
 70
     8
 71
     2
 72
     2
 73
     0
 90
        0
 40
-0.6
 41
-30.0
 62
     5
 63
     7
 74
     1
 91
        0
 64
     7
 65
   257
 75
     1
175
     1
 42
1.0
 92
        8
 66
     8
 43
1.0
 76
     1
 77
     6
 78
     2
 67
     7
 79
     5
170
     0
171
     0
290
     0
174
     0
 93
       13
 44
0.0
173
     0
291
     0
 45
0.0
1001
ACAD
1000
AcDbSavedByObjectVersion
1070
     0
  0
VISUALSTYLE
  5
108F
102
{ACAD_XDICTIONARY
360
1D0E
102
}
102
{ACAD_REACTORS
330
1082
102
}
330
1082
100
AcDbVisualStyle
  2
Thicken
 70
    13
 71
     2
 72
     2
 73
     0
 90
        0
 40
-0.6
 41
-30.0
 62
     5
 63
     7
 74
     1
 91
        4
 64
     7
 65
   257
 75
     1
175
     1
 42
1.0
 92
       12
 66
     7
 43
1.0
 76
     1
 77
     6
 78
     2
 67
     7
 79
     5
170
     0
171
     0
290
     0
174
     0
 93
        1
 44
0.0
173
     0
291
     1
 45
0.0
1001
ACAD
1000
AcDbSavedByObjectVersion
1070
     0
  0
DICTIONARYVAR
  5
1CE2
102
{ACAD_REACTORS
330
3D
102
}
330
3D
100
DictionaryVariables
280
     0
  1
1:1
  0
DICTIONARYVAR
  5
1CE1
102
{ACAD_REACTORS
330
3D
102
}
330
3D
100
DictionaryVariables
280
     0
  1
STANDARD
  0
DICTIONARYVAR
  5
1049
102
{ACAD_REACTORS
330
3D
102
}
330
3D
100
DictionaryVariables
280
     0
  1
STANDARD
  0
DICTIONARYVAR
  5
3F
102
{ACAD_REACTORS
330
3D
102
}
330
3D
100
DictionaryVariables
280
     0
  1
2
  0
DICTIONARYVAR
  5
3E
102
{ACAD_REACTORS
330
3D
102
}
330
3D
100
DictionaryVariables
280
     0
  1
1
  0
DICTIONARYVAR
  5
1CE4
102
{ACAD_REACTORS
330
3D
102
}
330
3D
100
DictionaryVariables
280
     0
  1
0
  0
DICTIONARYVAR
  5
1CE3
102
{ACAD_REACTORS
330
3D
102
}
330
3D
100
DictionaryVariables
280
     0
  1
127
  0
DICTIONARYVAR
  5
1CE5
102
{ACAD_REACTORS
330
3D
102
}
330
3D
100
DictionaryVariables
280
     0
  1
0
  0
XRECORD
  5
1067
102
{ACAD_REACTORS
330
1066
102
}
330
1066
100
AcDbXrecord
280
     1
  0
DICTIONARY
  5
1CEC
330
1E
100
AcDbDictionary
280
     1
281
     1
  3
ACAD_XREC_ROUNDTRIP
360
1CED
  0
DICTIONARY
  5
1CF0
330
26
100
AcDbDictionary
280
     1
281
     1
  3
ACAD_XREC_ROUNDTRIP
360
1CF1
  0
DICTIONARY
  5
1CEE
330
22
100
AcDbDictionary
280
     1
281
     1
  3
ACAD_XREC_ROUNDTRIP
360
1CEF
  0
DICTIONARY
  5
1073
330
1072
100
AcDbDictionary
280
     1
281
     1
  3
ACAD_XREC_ROUNDTRIP
360
1CF4
  3
BUMPTILE
360
1075
  3
DIFFUSETILE
360
1074
  3
OPACITYTILE
360
1078
  3
REFLECTIONTILE
360
1077
  3
REFRACTIONTILE
360
1079
  3
SPECULARTILE
360
1076
  0
DICTIONARY
  5
106B
330
106A
100
AcDbDictionary
280
     1
281
     1
  3
ACAD_XREC_ROUNDTRIP
360
1CF3
  3
BUMPTILE
360
106D
  3
DIFFUSETILE
360
106C
  3
OPACITYTILE
360
1070
  3
REFLECTIONTILE
360
106F
  3
REFRACTIONTILE
360
1071
  3
SPECULARTILE
360
106E
  0
DICTIONARY
  5
107B
330
107A
100
AcDbDictionary
280
     1
281
     1
  3
ACAD_XREC_ROUNDTRIP
360
1CF5
  3
BUMPTILE
360
107D
  3
DIFFUSETILE
360
107C
  3
OPACITYTILE
360
1080
  3
REFLECTIONTILE
360
107F
  3
REFRACTIONTILE
360
1081
  3
SPECULARTILE
360
107E
  0
DICTIONARY
  5
1CE6
330
EE8
100
AcDbDictionary
280
     1
281
     1
  3
ACAD_ROUNDTRIP_2008_TABLESTYLE_CELLSTYLEMAP
360
1CE7
  3
ACAD_XREC_ROUNDTRIP
360
1CF2
  0
DICTIONARY
  5
1D00
330
1088
100
AcDbDictionary
280
     1
281
     1
  3
ACAD_XREC_ROUNDTRIP
360
1D01
  0
DICTIONARY
  5
1D04
330
108A
100
AcDbDictionary
280
     1
281
     1
  3
ACAD_XREC_ROUNDTRIP
360
1D05
  0
DICTIONARY
  5
1D02
330
1089
100
AcDbDictionary
280
     1
281
     1
  3
ACAD_XREC_ROUNDTRIP
360
1D03
  0
DICTIONARY
  5
1CFE
330
1087
100
AcDbDictionary
280
     1
281
     1
  3
ACAD_XREC_ROUNDTRIP
360
1CFF
  0
DICTIONARY
  5
1D0C
330
108E
100
AcDbDictionary
280
     1
281
     1
  3
ACAD_XREC_ROUNDTRIP
360
1D0D
  0
DICTIONARY
  5
1D14
330
1092
100
AcDbDictionary
280
     1
281
     1
  3
ACAD_XREC_ROUNDTRIP
360
1D15
  0
DICTIONARY
  5
1D06
330
108B
100
AcDbDictionary
280
     1
281
     1
  3
ACAD_XREC_ROUNDTRIP
360
1D07
  0
DICTIONARY
  5
1D0A
330
108D
100
AcDbDictionary
280
     1
281
     1
  3
ACAD_XREC_ROUNDTRIP
360
1D0B
  0
DICTIONARY
  5
1D1A
330
1095
100
AcDbDictionary
280
     1
281
     1
  3
ACAD_XREC_ROUNDTRIP
360
1D1B
  0
DICTIONARY
  5
1D12
330
1091
100
AcDbDictionary
280
     1
281
     1
  3
ACAD_XREC_ROUNDTRIP
360
1D13
  0
DICTIONARY
  5
1CF6
330
1083
100
AcDbDictionary
280
     1
281
     1
  3
ACAD_XREC_ROUNDTRIP
360
1CF7
  0
DICTIONARY
  5
1CF8
330
1084
100
AcDbDictionary
280
     1
281
     1
  3
ACAD_XREC_ROUNDTRIP
360
1CF9
  0
DICTIONARY
  5
1CFA
330
1085
100
AcDbDictionary
280
     1
281
     1
  3
ACAD_XREC_ROUNDTRIP
360
1CFB
  0
DICTIONARY
  5
1CFC
330
1086
100
AcDbDictionary
280
     1
281
     1
  3
ACAD_XREC_ROUNDTRIP
360
1CFD
  0
DICTIONARY
  5
1D16
330
1093
100
AcDbDictionary
280
     1
281
     1
  3
ACAD_XREC_ROUNDTRIP
360
1D17
  0
DICTIONARY
  5
1D10
330
1090
100
AcDbDictionary
280
     1
281
     1
  3
ACAD_XREC_ROUNDTRIP
360
1D11
  0
DICTIONARY
  5
1D18
330
1094
100
AcDbDictionary
280
     1
281
     1
  3
ACAD_XREC_ROUNDTRIP
360
1D19
  0
DICTIONARY
  5
1D08
330
108C
100
AcDbDictionary
280
     1
281
     1
  3
ACAD_XREC_ROUNDTRIP
360
1D09
  0
DICTIONARY
  5
1D0E
330
108F
100
AcDbDictionary
280
     1
281
     1
  3
ACAD_XREC_ROUNDTRIP
360
1D0F
  0
XRECORD
  5
1CED
102
{ACAD_REACTORS
330
1CEC
102
}
330
1CEC
100
AcDbXrecord
280
     1
102
SHADEPLOT
 70
     0
102
SHADEPLOTRESLEVEL
 70
     2
102
SHADEPLOTCUSTOMDPI
 70
   300
  0
XRECORD
  5
1CF1
102
{ACAD_REACTORS
330
1CF0
102
}
330
1CF0
100
AcDbXrecord
280
     1
102
SHADEPLOT
 70
     0
102
SHADEPLOTRESLEVEL
 70
     2
102
SHADEPLOTCUSTOMDPI
 70
   300
  0
XRECORD
  5
1CEF
102
{ACAD_REACTORS
330
1CEE
102
}
330
1CEE
100
AcDbXrecord
280
     1
102
SHADEPLOT
 70
     0
102
SHADEPLOTRESLEVEL
 70
     2
102
SHADEPLOTCUSTOMDPI
 70
   300
  0
XRECORD
  5
1CF4
102
{ACAD_REACTORS
330
1073
102
}
330
1073
100
AcDbXrecord
280
     1
102
MATERIAL
148
0.0
149
0.0
149
0.0
 93
        0
 94
      127
282
     0
 72
     0
 77
     0
171
     0
175
     0
179
     0
273
     0
  0
XRECORD
  5
1075
102
{ACAD_REACTORS
330
1073
102
}
330
1073
100
AcDbXrecord
280
     1
270
     1
271
     1
  0
XRECORD
  5
1074
102
{ACAD_REACTORS
330
1073
102
}
330
1073
100
AcDbXrecord
280
     1
270
     1
271
     1
  0
XRECORD
  5
1078
102
{ACAD_REACTORS
330
1073
102
}
330
1073
100
AcDbXrecord
280
     1
270
     1
271
     1
  0
XRECORD
  5
1077
102
{ACAD_REACTORS
330
1073
102
}
330
1073
100
AcDbXrecord
280
     1
270
     1
271
     1
  0
XRECORD
  5
1079
102
{ACAD_REACTORS
330
1073
102
}
330
1073
100
AcDbXrecord
280
     1
270
     1
271
     1
  0
XRECORD
  5
1076
102
{ACAD_REACTORS
330
1073
102
}
330
1073
100
AcDbXrecord
280
     1
270
     1
271
     1
  0
XRECORD
  5
1CF3
102
{ACAD_REACTORS
330
106B
102
}
330
106B
100
AcDbXrecord
280
     1
102
MATERIAL
148
0.0
149
0.0
149
0.0
 93
        0
 94
      127
282
     0
 72
     0
 77
     0
171
     0
175
     0
179
     0
273
     0
  0
XRECORD
  5
106D
102
{ACAD_REACTORS
330
106B
102
}
330
106B
100
AcDbXrecord
280
     1
270
     1
271
     1
  0
XRECORD
  5
106C
102
{ACAD_REACTORS
330
106B
102
}
330
106B
100
AcDbXrecord
280
     1
270
     1
271
     1
  0
XRECORD
  5
1070
102
{ACAD_REACTORS
330
106B
102
}
330
106B
100
AcDbXrecord
280
     1
270
     1
271
     1
  0
XRECORD
  5
106F
102
{ACAD_REACTORS
330
106B
102
}
330
106B
100
AcDbXrecord
280
     1
270
     1
271
     1
  0
XRECORD
  5
1071
102
{ACAD_REACTORS
330
106B
102
}
330
106B
100
AcDbXrecord
280
     1
270
     1
271
     1
  0
XRECORD
  5
106E
102
{ACAD_REACTORS
330
106B
102
}
330
106B
100
AcDbXrecord
280
     1
270
     1
271
     1
  0
XRECORD
  5
1CF5
102
{ACAD_REACTORS
330
107B
102
}
330
107B
100
AcDbXrecord
280
     1
102
MATERIAL
148
0.0
149
0.0
149
0.0
 93
        0
 94
      127
282
     0
 72
     0
 77
     0
171
     0
175
     0
179
     0
273
     0
  0
XRECORD
  5
107D
102
{ACAD_REACTORS
330
107B
102
}
330
107B
100
AcDbXrecord
280
     1
270
     1
271
     1
  0
XRECORD
  5
107C
102
{ACAD_REACTORS
330
107B
102
}
330
107B
100
AcDbXrecord
280
     1
270
     1
271
     1
  0
XRECORD
  5
1080
102
{ACAD_REACTORS
330
107B
102
}
330
107B
100
AcDbXrecord
280
     1
270
     1
271
     1
  0
XRECORD
  5
107F
102
{ACAD_REACTORS
330
107B
102
}
330
107B
100
AcDbXrecord
280
     1
270
     1
271
     1
  0
XRECORD
  5
1081
102
{ACAD_REACTORS
330
107B
102
}
330
107B
100
AcDbXrecord
280
     1
270
     1
271
     1
  0
XRECORD
  5
107E
102
{ACAD_REACTORS
330
107B
102
}
330
107B
100
AcDbXrecord
280
     1
270
     1
271
     1
  0
CELLSTYLEMAP
  5
1CE7
102
{ACAD_REACTORS
330
1CE6
102
}
330
1CE6
100
AcDbCellStyleMap
 90
        3
300
CELLSTYLE
  1
TABLEFORMAT_BEGIN
 90
        5
170
     1
 91
        0
 92
    32768
 62
   257
 93
        1
300
CONTENTFORMAT
  1
CONTENTFORMAT_BEGIN
 90
        0
 91
        0
 92
        4
 93
        0
300

 40
0.0
140
1.0
 94
        5
 62
     0
340
11
144
6.0
309
CONTENTFORMAT_END
171
     1
301
MARGIN
  1
CELLMARGIN_BEGIN
 40
1.5
 40
1.5
 40
1.5
 40
1.5
 40
0.18
 40
0.18
309
CELLMARGIN_END
 94
        6
 95
        1
302
GRIDFORMAT
  1
GRIDFORMAT_BEGIN
 90
        0
 91
        1
 62
     0
 92
       -2
340
0
 93
        0
 40
0.045
309
GRIDFORMAT_END
 95
        2
302
GRIDFORMAT
  1
GRIDFORMAT_BEGIN
 90
        0
 91
        1
 62
     0
 92
       -2
340
0
 93
        0
 40
0.045
309
GRIDFORMAT_END
 95
        4
302
GRIDFORMAT
  1
GRIDFORMAT_BEGIN
 90
        0
 91
        1
 62
     0
 92
       -2
340
0
 93
        0
 40
0.045
309
GRIDFORMAT_END
 95
        8
302
GRIDFORMAT
  1
GRIDFORMAT_BEGIN
 90
        0
 91
        1
 62
     0
 92
       -2
340
0
 93
        0
 40
0.045
309
GRIDFORMAT_END
 95
       16
302
GRIDFORMAT
  1
GRIDFORMAT_BEGIN
 90
        0
 91
        1
 62
     0
 92
       -2
340
0
 93
        0
 40
0.045
309
GRIDFORMAT_END
 95
       32
302
GRIDFORMAT
  1
GRIDFORMAT_BEGIN
 90
        0
 91
        1
 62
     0
 92
       -2
340
0
 93
        0
 40
0.045
309
GRIDFORMAT_END
309
TABLEFORMAT_END
  1
CELLSTYLE_BEGIN
 90
        1
 91
        1
300
_TITLE
309
CELLSTYLE_END
300
CELLSTYLE
  1
TABLEFORMAT_BEGIN
 90
        5
170
     1
 91
        0
 92
        0
 62
   257
 93
        1
300
CONTENTFORMAT
  1
CONTENTFORMAT_BEGIN
 90
        0
 91
        0
 92
        4
 93
        0
300

 40
0.0
140
1.0
 94
        5
 62
     0
340
11
144
4.5
309
CONTENTFORMAT_END
171
     1
301
MARGIN
  1
CELLMARGIN_BEGIN
 40
1.5
 40
1.5
 40
1.5
 40
1.5
 40
0.18
 40
0.18
309
CELLMARGIN_END
 94
        6
 95
        1
302
GRIDFORMAT
  1
GRIDFORMAT_BEGIN
 90
        0
 91
        1
 62
     0
 92
       -2
340
0
 93
        0
 40
0.045
309
GRIDFORMAT_END
 95
        2
302
GRIDFORMAT
  1
GRIDFORMAT_BEGIN
 90
        0
 91
        1
 62
     0
 92
       -2
340
0
 93
        0
 40
0.045
309
GRIDFORMAT_END
 95
        4
302
GRIDFORMAT
  1
GRIDFORMAT_BEGIN
 90
        0
 91
        1
 62
     0
 92
       -2
340
0
 93
        0
 40
0.045
309
GRIDFORMAT_END
 95
        8
302
GRIDFORMAT
  1
GRIDFORMAT_BEGIN
 90
        0
 91
        1
 62
     0
 92
       -2
340
0
 93
        0
 40
0.045
309
GRIDFORMAT_END
 95
       16
302
GRIDFORMAT
  1
GRIDFORMAT_BEGIN
 90
        0
 91
        1
 62
     0
 92
       -2
340
0
 93
        0
 40
0.045
309
GRIDFORMAT_END
 95
       32
302
GRIDFORMAT
  1
GRIDFORMAT_BEGIN
 90
        0
 91
        1
 62
     0
 92
       -2
340
0
 93
        0
 40
0.045
309
GRIDFORMAT_END
309
TABLEFORMAT_END
  1
CELLSTYLE_BEGIN
 90
        2
 91
        1
300
_HEADER
309
CELLSTYLE_END
300
CELLSTYLE
  1
TABLEFORMAT_BEGIN
 90
        5
170
     1
 91
        0
 92
        0
 62
   257
 93
        1
300
CONTENTFORMAT
  1
CONTENTFORMAT_BEGIN
 90
        0
 91
        0
 92
        4
 93
        0
300

 40
0.0
140
1.0
 94
        2
 62
     0
340
11
144
4.5
309
CONTENTFORMAT_END
171
     1
301
MARGIN
  1
CELLMARGIN_BEGIN
 40
1.5
 40
1.5
 40
1.5
 40
1.5
 40
0.18
 40
0.18
309
CELLMARGIN_END
 94
        6
 95
        1
302
GRIDFORMAT
  1
GRIDFORMAT_BEGIN
 90
        0
 91
        1
 62
     0
 92
       -2
340
0
 93
        0
 40
0.045
309
GRIDFORMAT_END
 95
        2
302
GRIDFORMAT
  1
GRIDFORMAT_BEGIN
 90
        0
 91
        1
 62
     0
 92
       -2
340
0
 93
        0
 40
0.045
309
GRIDFORMAT_END
 95
        4
302
GRIDFORMAT
  1
GRIDFORMAT_BEGIN
 90
        0
 91
        1
 62
     0
 92
       -2
340
0
 93
        0
 40
0.045
309
GRIDFORMAT_END
 95
        8
302
GRIDFORMAT
  1
GRIDFORMAT_BEGIN
 90
        0
 91
        1
 62
     0
 92
       -2
340
0
 93
        0
 40
0.045
309
GRIDFORMAT_END
 95
       16
302
GRIDFORMAT
  1
GRIDFORMAT_BEGIN
 90
        0
 91
        1
 62
     0
 92
       -2
340
0
 93
        0
 40
0.045
309
GRIDFORMAT_END
 95
       32
302
GRIDFORMAT
  1
GRIDFORMAT_BEGIN
 90
        0
 91
        1
 62
     0
 92
       -2
340
0
 93
        0
 40
0.045
309
GRIDFORMAT_END
309
TABLEFORMAT_END
  1
CELLSTYLE_BEGIN
 90
        3
 91
        2
300
_DATA
309
CELLSTYLE_END
  0
XRECORD
  5
1CF2
102
{ACAD_REACTORS
330
1CE6
102
}
330
1CE6
100
AcDbXrecord
280
     1
102
ACAD_ROUNDTRIP_PRE2007_TABLESTYLE
 90
        4
 91
        0
  1

 92
        4
 93
        0
  2

 94
        4
 95
        0
  3

  0
XRECORD
  5
1D01
102
{ACAD_REACTORS
330
1D00
102
}
330
1D00
100
AcDbXrecord
280
     1
102
RTVSPropertyOp0
 70
     1
102
RTVSPropertyOp1
 70
     1
102
RTVSPropertyOp2
 70
     1
102
RTVSPropertyOp3
 70
     1
102
RTVSPropertyOp4
 70
     1
102
RTVSPropertyOp5
 70
     1
102
RTVSPropertyOp6
 70
     1
102
RTVSPropertyOp7
 70
     1
102
RTVSPropertyOp8
 70
     1
102
RTVSPropertyOp9
 70
     1
102
RTVSPropertyOp10
 70
     1
102
RTVSPropertyOp11
 70
     1
102
RTVSPropertyOp12
 70
     1
102
RTVSPropertyOp13
 70
     1
102
RTVSPropertyOp14
 70
     1
102
RTVSPropertyOp15
 70
     1
102
RTVSPropertyOp16
 70
     1
102
RTVSPropertyOp17
 70
     1
102
RTVSPropertyOp18
 70
     1
102
RTVSPropertyOp19
 70
     1
102
RTVSPropertyOp20
 70
     1
102
RTVSPropertyOp21
 70
     1
102
RTVSPropertyOp22
 70
     1
102
RTVSPropertyOp23
 70
     1
102
RTVSPropertyOp24
 70
     1
102
RTVSPropertyOp25
 70
     1
102
RTVSPropertyOp26
 70
     1
102
RTVSPropertyOp27
 70
     1
  0
XRECORD
  5
1D05
102
{ACAD_REACTORS
330
1D04
102
}
330
1D04
100
AcDbXrecord
280
     1
102
RTVSPropertyOp0
 70
     1
102
RTVSPropertyOp1
 70
     1
102
RTVSPropertyOp2
 70
     1
102
RTVSPropertyOp3
 70
     1
102
RTVSPropertyOp4
 70
     1
102
RTVSPropertyOp5
 70
     1
102
RTVSPropertyOp6
 70
     1
102
RTVSPropertyOp7
 70
     1
102
RTVSPropertyOp8
 70
     1
102
RTVSPropertyOp9
 70
     1
102
RTVSPropertyOp10
 70
     1
102
RTVSPropertyOp11
 70
     1
102
RTVSPropertyOp12
 70
     1
102
RTVSPropertyOp13
 70
     1
102
RTVSPropertyOp14
 70
     1
102
RTVSPropertyOp15
 70
     1
102
RTVSPropertyOp16
 70
     1
102
RTVSPropertyOp17
 70
     1
102
RTVSPropertyOp18
 70
     1
102
RTVSPropertyOp19
 70
     1
102
RTVSPropertyOp20
 70
     1
102
RTVSPropertyOp21
 70
     1
102
RTVSPropertyOp22
 70
     1
102
RTVSPropertyOp23
 70
     1
102
RTVSPropertyOp24
 70
     1
102
RTVSPropertyOp25
 70
     1
102
RTVSPropertyOp26
 70
     1
102
RTVSPropertyOp27
 70
     1
  0
XRECORD
  5
1D03
102
{ACAD_REACTORS
330
1D02
102
}
330
1D02
100
AcDbXrecord
280
     1
102
RTVSPropertyOp0
 70
     1
102
RTVSPropertyOp1
 70
     1
102
RTVSPropertyOp2
 70
     1
102
RTVSPropertyOp3
 70
     1
102
RTVSPropertyOp4
 70
     1
102
RTVSPropertyOp5
 70
     1
102
RTVSPropertyOp6
 70
     1
102
RTVSPropertyOp7
 70
     1
102
RTVSPropertyOp8
 70
     1
102
RTVSPropertyOp9
 70
     1
102
RTVSPropertyOp10
 70
     1
102
RTVSPropertyOp11
 70
     1
102
RTVSPropertyOp12
 70
     1
102
RTVSPropertyOp13
 70
     1
102
RTVSPropertyOp14
 70
     1
102
RTVSPropertyOp15
 70
     1
102
RTVSPropertyOp16
 70
     1
102
RTVSPropertyOp17
 70
     1
102
RTVSPropertyOp18
 70
     1
102
RTVSPropertyOp19
 70
     1
102
RTVSPropertyOp20
 70
     1
102
RTVSPropertyOp21
 70
     1
102
RTVSPropertyOp22
 70
     1
102
RTVSPropertyOp23
 70
     1
102
RTVSPropertyOp24
 70
     1
102
RTVSPropertyOp25
 70
     1
102
RTVSPropertyOp26
 70
     1
102
RTVSPropertyOp27
 70
     1
  0
XRECORD
  5
1CFF
102
{ACAD_REACTORS
330
1CFE
102
}
330
1CFE
100
AcDbXrecord
280
     1
102
RTVSPropertyOp0
 70
     1
102
RTVSPropertyOp1
 70
     1
102
RTVSPropertyOp2
 70
     1
102
RTVSPropertyOp3
 70
     1
102
RTVSPropertyOp4
 70
     1
102
RTVSPropertyOp5
 70
     1
102
RTVSPropertyOp6
 70
     1
102
RTVSPropertyOp7
 70
     1
102
RTVSPropertyOp8
 70
     1
102
RTVSPropertyOp9
 70
     1
102
RTVSPropertyOp10
 70
     1
102
RTVSPropertyOp11
 70
     1
102
RTVSPropertyOp12
 70
     1
102
RTVSPropertyOp13
 70
     1
102
RTVSPropertyOp14
 70
     1
102
RTVSPropertyOp15
 70
     1
102
RTVSPropertyOp16
 70
     1
102
RTVSPropertyOp17
 70
     1
102
RTVSPropertyOp18
 70
     1
102
RTVSPropertyOp19
 70
     1
102
RTVSPropertyOp20
 70
     1
102
RTVSPropertyOp21
 70
     1
102
RTVSPropertyOp22
 70
     1
102
RTVSPropertyOp23
 70
     1
102
RTVSPropertyOp24
 70
     1
102
RTVSPropertyOp25
 70
     1
102
RTVSPropertyOp26
 70
     1
102
RTVSPropertyOp27
 70
     1
  0
XRECORD
  5
1D0D
102
{ACAD_REACTORS
330
1D0C
102
}
330
1D0C
100
AcDbXrecord
280
     1
102
RTVSPropertyOp0
 70
     1
102
RTVSPropertyOp1
 70
     1
102
RTVSPropertyOp2
 70
     1
102
RTVSPropertyOp3
 70
     1
102
RTVSPropertyOp4
 70
     1
102
RTVSPropertyOp5
 70
     1
102
RTVSPropertyOp6
 70
     1
102
RTVSPropertyOp7
 70
     1
102
RTVSPropertyOp8
 70
     1
102
RTVSPropertyOp9
 70
     1
102
RTVSPropertyOp10
 70
     1
102
RTVSPropertyOp11
 70
     1
102
RTVSPropertyOp12
 70
     1
102
RTVSPropertyOp13
 70
     1
102
RTVSPropertyOp14
 70
     1
102
RTVSPropertyOp15
 70
     1
102
RTVSPropertyOp16
 70
     1
102
RTVSPropertyOp17
 70
     1
102
RTVSPropertyOp18
 70
     1
102
RTVSPropertyOp19
 70
     1
102
RTVSPropertyOp20
 70
     1
102
RTVSPropertyOp21
 70
     1
102
RTVSPropertyOp22
 70
     1
102
RTVSPropertyOp23
 70
     1
102
RTVSPropertyOp24
 70
     1
102
RTVSPropertyOp25
 70
     1
102
RTVSPropertyOp26
 70
     1
102
RTVSPropertyOp27
 70
     1
  0
XRECORD
  5
1D15
102
{ACAD_REACTORS
330
1D14
102
}
330
1D14
100
AcDbXrecord
280
     1
102
RTVSPropertyOp0
 70
     1
102
RTVSPropertyOp1
 70
     1
102
RTVSPropertyOp2
 70
     1
102
RTVSPropertyOp3
 70
     1
102
RTVSPropertyOp4
 70
     1
102
RTVSPropertyOp5
 70
     1
102
RTVSPropertyOp6
 70
     1
102
RTVSPropertyOp7
 70
     1
102
RTVSPropertyOp8
 70
     1
102
RTVSPropertyOp9
 70
     1
102
RTVSPropertyOp10
 70
     1
102
RTVSPropertyOp11
 70
     1
102
RTVSPropertyOp12
 70
     1
102
RTVSPropertyOp13
 70
     1
102
RTVSPropertyOp14
 70
     1
102
RTVSPropertyOp15
 70
     1
102
RTVSPropertyOp16
 70
     1
102
RTVSPropertyOp17
 70
     1
102
RTVSPropertyOp18
 70
     1
102
RTVSPropertyOp19
 70
     1
102
RTVSPropertyOp20
 70
     1
102
RTVSPropertyOp21
 70
     1
102
RTVSPropertyOp22
 70
     1
102
RTVSPropertyOp23
 70
     1
102
RTVSPropertyOp24
 70
     1
102
RTVSPropertyOp25
 70
     1
102
RTVSPropertyOp26
 70
     1
102
RTVSPropertyOp27
 70
     1
  0
XRECORD
  5
1D07
102
{ACAD_REACTORS
330
1D06
102
}
330
1D06
100
AcDbXrecord
280
     1
102
RTVSPropertyOp0
 70
     1
102
RTVSPropertyOp1
 70
     1
102
RTVSPropertyOp2
 70
     1
102
RTVSPropertyOp3
 70
     1
102
RTVSPropertyOp4
 70
     1
102
RTVSPropertyOp5
 70
     1
102
RTVSPropertyOp6
 70
     1
102
RTVSPropertyOp7
 70
     1
102
RTVSPropertyOp8
 70
     1
102
RTVSPropertyOp9
 70
     1
102
RTVSPropertyOp10
 70
     1
102
RTVSPropertyOp11
 70
     1
102
RTVSPropertyOp12
 70
     1
102
RTVSPropertyOp13
 70
     1
102
RTVSPropertyOp14
 70
     1
102
RTVSPropertyOp15
 70
     1
102
RTVSPropertyOp16
 70
     1
102
RTVSPropertyOp17
 70
     1
102
RTVSPropertyOp18
 70
     1
102
RTVSPropertyOp19
 70
     1
102
RTVSPropertyOp20
 70
     1
102
RTVSPropertyOp21
 70
     1
102
RTVSPropertyOp22
 70
     1
102
RTVSPropertyOp23
 70
     1
102
RTVSPropertyOp24
 70
     1
102
RTVSPropertyOp25
 70
     1
102
RTVSPropertyOp26
 70
     1
102
RTVSPropertyOp27
 70
     1
  0
XRECORD
  5
1D0B
102
{ACAD_REACTORS
330
1D0A
102
}
330
1D0A
100
AcDbXrecord
280
     1
102
RTVSPropertyOp0
 70
     1
102
RTVSPropertyOp1
 70
     1
102
RTVSPropertyOp2
 70
     1
102
RTVSPropertyOp3
 70
     1
102
RTVSPropertyOp4
 70
     1
102
RTVSPropertyOp5
 70
     1
102
RTVSPropertyOp6
 70
     1
102
RTVSPropertyOp7
 70
     1
102
RTVSPropertyOp8
 70
     1
102
RTVSPropertyOp9
 70
     1
102
RTVSPropertyOp10
 70
     1
102
RTVSPropertyOp11
 70
     1
102
RTVSPropertyOp12
 70
     1
102
RTVSPropertyOp13
 70
     1
102
RTVSPropertyOp14
 70
     1
102
RTVSPropertyOp15
 70
     1
102
RTVSPropertyOp16
 70
     1
102
RTVSPropertyOp17
 70
     1
102
RTVSPropertyOp18
 70
     1
102
RTVSPropertyOp19
 70
     1
102
RTVSPropertyOp20
 70
     1
102
RTVSPropertyOp21
 70
     1
102
RTVSPropertyOp22
 70
     1
102
RTVSPropertyOp23
 70
     1
102
RTVSPropertyOp24
 70
     1
102
RTVSPropertyOp25
 70
     1
102
RTVSPropertyOp26
 70
     1
102
RTVSPropertyOp27
 70
     1
  0
XRECORD
  5
1D1B
102
{ACAD_REACTORS
330
1D1A
102
}
330
1D1A
100
AcDbXrecord
280
     1
102
RTVSPropertyOp0
 70
     0
102
RTVSPropertyOp1
 70
     0
102
RTVSPropertyOp2
 70
     0
102
RTVSPropertyOp3
 70
     0
102
RTVSPropertyOp4
 70
     0
102
RTVSPropertyOp5
 70
     0
102
RTVSPropertyOp6
 70
     0
102
RTVSPropertyOp7
 70
     0
102
RTVSPropertyOp8
 70
     0
102
RTVSPropertyOp9
 70
     0
102
RTVSPropertyOp10
 70
     0
102
RTVSPropertyOp11
 70
     0
102
RTVSPropertyOp12
 70
     0
102
RTVSPropertyOp13
 70
     0
102
RTVSPropertyOp14
 70
     2
102
RTVSPropertyOp15
 70
     0
102
RTVSPropertyOp16
 70
     0
102
RTVSPropertyOp17
 70
     0
102
RTVSPropertyOp18
 70
     0
102
RTVSPropertyOp19
 70
     0
102
RTVSPropertyOp20
 70
     0
102
RTVSPropertyOp21
 70
     0
102
RTVSPropertyOp22
 70
     0
102
RTVSPropertyOp23
 70
     0
102
RTVSPropertyOp24
 70
     0
102
RTVSPropertyOp25
 70
     0
102
RTVSPropertyOp26
 70
     0
102
RTVSPropertyOp27
 70
     0
  0
XRECORD
  5
1D13
102
{ACAD_REACTORS
330
1D12
102
}
330
1D12
100
AcDbXrecord
280
     1
102
RTVSPropertyOp0
 70
     1
102
RTVSPropertyOp1
 70
     1
102
RTVSPropertyOp2
 70
     1
102
RTVSPropertyOp3
 70
     1
102
RTVSPropertyOp4
 70
     1
102
RTVSPropertyOp5
 70
     1
102
RTVSPropertyOp6
 70
     1
102
RTVSPropertyOp7
 70
     1
102
RTVSPropertyOp8
 70
     1
102
RTVSPropertyOp9
 70
     1
102
RTVSPropertyOp10
 70
     1
102
RTVSPropertyOp11
 70
     1
102
RTVSPropertyOp12
 70
     1
102
RTVSPropertyOp13
 70
     1
102
RTVSPropertyOp14
 70
     1
102
RTVSPropertyOp15
 70
     1
102
RTVSPropertyOp16
 70
     1
102
RTVSPropertyOp17
 70
     1
102
RTVSPropertyOp18
 70
     1
102
RTVSPropertyOp19
 70
     1
102
RTVSPropertyOp20
 70
     1
102
RTVSPropertyOp21
 70
     1
102
RTVSPropertyOp22
 70
     1
102
RTVSPropertyOp23
 70
     1
102
RTVSPropertyOp24
 70
     1
102
RTVSPropertyOp25
 70
     1
102
RTVSPropertyOp26
 70
     1
102
RTVSPropertyOp27
 70
     1
  0
XRECORD
  5
1CF7
102
{ACAD_REACTORS
330
1CF6
102
}
330
1CF6
100
AcDbXrecord
280
     1
102
RTVSPropertyOp0
 70
     1
102
RTVSPropertyOp1
 70
     1
102
RTVSPropertyOp2
 70
     1
102
RTVSPropertyOp3
 70
     1
102
RTVSPropertyOp4
 70
     1
102
RTVSPropertyOp5
 70
     1
102
RTVSPropertyOp6
 70
     1
102
RTVSPropertyOp7
 70
     1
102
RTVSPropertyOp8
 70
     1
102
RTVSPropertyOp9
 70
     1
102
RTVSPropertyOp10
 70
     1
102
RTVSPropertyOp11
 70
     1
102
RTVSPropertyOp12
 70
     1
102
RTVSPropertyOp13
 70
     1
102
RTVSPropertyOp14
 70
     1
102
RTVSPropertyOp15
 70
     1
102
RTVSPropertyOp16
 70
     1
102
RTVSPropertyOp17
 70
     1
102
RTVSPropertyOp18
 70
     1
102
RTVSPropertyOp19
 70
     1
102
RTVSPropertyOp20
 70
     1
102
RTVSPropertyOp21
 70
     1
102
RTVSPropertyOp22
 70
     1
102
RTVSPropertyOp23
 70
     1
102
RTVSPropertyOp24
 70
     1
102
RTVSPropertyOp25
 70
     1
102
RTVSPropertyOp26
 70
     1
102
RTVSPropertyOp27
 70
     1
  0
XRECORD
  5
1CF9
102
{ACAD_REACTORS
330
1CF8
102
}
330
1CF8
100
AcDbXrecord
280
     1
102
RTVSPropertyOp0
 70
     1
102
RTVSPropertyOp1
 70
     1
102
RTVSPropertyOp2
 70
     1
102
RTVSPropertyOp3
 70
     1
102
RTVSPropertyOp4
 70
     1
102
RTVSPropertyOp5
 70
     1
102
RTVSPropertyOp6
 70
     1
102
RTVSPropertyOp7
 70
     1
102
RTVSPropertyOp8
 70
     1
102
RTVSPropertyOp9
 70
     1
102
RTVSPropertyOp10
 70
     1
102
RTVSPropertyOp11
 70
     1
102
RTVSPropertyOp12
 70
     1
102
RTVSPropertyOp13
 70
     1
102
RTVSPropertyOp14
 70
     1
102
RTVSPropertyOp15
 70
     1
102
RTVSPropertyOp16
 70
     1
102
RTVSPropertyOp17
 70
     1
102
RTVSPropertyOp18
 70
     1
102
RTVSPropertyOp19
 70
     1
102
RTVSPropertyOp20
 70
     1
102
RTVSPropertyOp21
 70
     1
102
RTVSPropertyOp22
 70
     1
102
RTVSPropertyOp23
 70
     1
102
RTVSPropertyOp24
 70
     1
102
RTVSPropertyOp25
 70
     1
102
RTVSPropertyOp26
 70
     1
102
RTVSPropertyOp27
 70
     1
  0
XRECORD
  5
1CFB
102
{ACAD_REACTORS
330
1CFA
102
}
330
1CFA
100
AcDbXrecord
280
     1
102
RTVSPropertyOp0
 70
     1
102
RTVSPropertyOp1
 70
     1
102
RTVSPropertyOp2
 70
     1
102
RTVSPropertyOp3
 70
     1
102
RTVSPropertyOp4
 70
     1
102
RTVSPropertyOp5
 70
     1
102
RTVSPropertyOp6
 70
     1
102
RTVSPropertyOp7
 70
     1
102
RTVSPropertyOp8
 70
     1
102
RTVSPropertyOp9
 70
     1
102
RTVSPropertyOp10
 70
     1
102
RTVSPropertyOp11
 70
     1
102
RTVSPropertyOp12
 70
     1
102
RTVSPropertyOp13
 70
     1
102
RTVSPropertyOp14
 70
     1
102
RTVSPropertyOp15
 70
     1
102
RTVSPropertyOp16
 70
     1
102
RTVSPropertyOp17
 70
     1
102
RTVSPropertyOp18
 70
     1
102
RTVSPropertyOp19
 70
     1
102
RTVSPropertyOp20
 70
     1
102
RTVSPropertyOp21
 70
     1
102
RTVSPropertyOp22
 70
     1
102
RTVSPropertyOp23
 70
     1
102
RTVSPropertyOp24
 70
     1
102
RTVSPropertyOp25
 70
     1
102
RTVSPropertyOp26
 70
     1
102
RTVSPropertyOp27
 70
     1
  0
XRECORD
  5
1CFD
102
{ACAD_REACTORS
330
1CFC
102
}
330
1CFC
100
AcDbXrecord
280
     1
102
RTVSPropertyOp0
 70
     1
102
RTVSPropertyOp1
 70
     1
102
RTVSPropertyOp2
 70
     1
102
RTVSPropertyOp3
 70
     1
102
RTVSPropertyOp4
 70
     1
102
RTVSPropertyOp5
 70
     1
102
RTVSPropertyOp6
 70
     1
102
RTVSPropertyOp7
 70
     1
102
RTVSPropertyOp8
 70
     1
102
RTVSPropertyOp9
 70
     1
102
RTVSPropertyOp10
 70
     1
102
RTVSPropertyOp11
 70
     1
102
RTVSPropertyOp12
 70
     1
102
RTVSPropertyOp13
 70
     1
102
RTVSPropertyOp14
 70
     1
102
RTVSPropertyOp15
 70
     1
102
RTVSPropertyOp16
 70
     1
102
RTVSPropertyOp17
 70
     1
102
RTVSPropertyOp18
 70
     1
102
RTVSPropertyOp19
 70
     1
102
RTVSPropertyOp20
 70
     1
102
RTVSPropertyOp21
 70
     1
102
RTVSPropertyOp22
 70
     1
102
RTVSPropertyOp23
 70
     1
102
RTVSPropertyOp24
 70
     1
102
RTVSPropertyOp25
 70
     1
102
RTVSPropertyOp26
 70
     1
102
RTVSPropertyOp27
 70
     1
  0
XRECORD
  5
1D17
102
{ACAD_REACTORS
330
1D16
102
}
330
1D16
100
AcDbXrecord
280
     1
102
RTVSPropertyOp0
 70
     0
102
RTVSPropertyOp1
 70
     0
102
RTVSPropertyOp2
 70
     0
102
RTVSPropertyOp3
 70
     0
102
RTVSPropertyOp4
 70
     0
102
RTVSPropertyOp5
 70
     0
102
RTVSPropertyOp6
 70
     0
102
RTVSPropertyOp7
 70
     0
102
RTVSPropertyOp8
 70
     0
102
RTVSPropertyOp9
 70
     0
102
RTVSPropertyOp10
 70
     0
102
RTVSPropertyOp11
 70
     0
102
RTVSPropertyOp12
 70
     0
102
RTVSPropertyOp13
 70
     0
102
RTVSPropertyOp14
 70
     2
102
RTVSPropertyOp15
 70
     0
102
RTVSPropertyOp16
 70
     0
102
RTVSPropertyOp17
 70
     0
102
RTVSPropertyOp18
 70
     0
102
RTVSPropertyOp19
 70
     0
102
RTVSPropertyOp20
 70
     0
102
RTVSPropertyOp21
 70
     0
102
RTVSPropertyOp22
 70
     0
102
RTVSPropertyOp23
 70
     0
102
RTVSPropertyOp24
 70
     0
102
RTVSPropertyOp25
 70
     0
102
RTVSPropertyOp26
 70
     0
102
RTVSPropertyOp27
 70
     0
  0
XRECORD
  5
1D11
102
{ACAD_REACTORS
330
1D10
102
}
330
1D10
100
AcDbXrecord
280
     1
102
RTVSPropertyOp0
 70
     1
102
RTVSPropertyOp1
 70
     1
102
RTVSPropertyOp2
 70
     1
102
RTVSPropertyOp3
 70
     1
102
RTVSPropertyOp4
 70
     1
102
RTVSPropertyOp5
 70
     1
102
RTVSPropertyOp6
 70
     1
102
RTVSPropertyOp7
 70
     1
102
RTVSPropertyOp8
 70
     1
102
RTVSPropertyOp9
 70
     1
102
RTVSPropertyOp10
 70
     1
102
RTVSPropertyOp11
 70
     1
102
RTVSPropertyOp12
 70
     1
102
RTVSPropertyOp13
 70
     1
102
RTVSPropertyOp14
 70
     1
102
RTVSPropertyOp15
 70
     1
102
RTVSPropertyOp16
 70
     1
102
RTVSPropertyOp17
 70
     1
102
RTVSPropertyOp18
 70
     1
102
RTVSPropertyOp19
 70
     1
102
RTVSPropertyOp20
 70
     1
102
RTVSPropertyOp21
 70
     1
102
RTVSPropertyOp22
 70
     1
102
RTVSPropertyOp23
 70
     1
102
RTVSPropertyOp24
 70
     1
102
RTVSPropertyOp25
 70
     1
102
RTVSPropertyOp26
 70
     1
102
RTVSPropertyOp27
 70
     1
  0
XRECORD
  5
1D19
102
{ACAD_REACTORS
330
1D18
102
}
330
1D18
100
AcDbXrecord
280
     1
102
RTVSPropertyOp0
 70
     0
102
RTVSPropertyOp1
 70
     0
102
RTVSPropertyOp2
 70
     0
102
RTVSPropertyOp3
 70
     0
102
RTVSPropertyOp4
 70
     0
102
RTVSPropertyOp5
 70
     0
102
RTVSPropertyOp6
 70
     0
102
RTVSPropertyOp7
 70
     0
102
RTVSPropertyOp8
 70
     0
102
RTVSPropertyOp9
 70
     0
102
RTVSPropertyOp10
 70
     0
102
RTVSPropertyOp11
 70
     0
102
RTVSPropertyOp12
 70
     0
102
RTVSPropertyOp13
 70
     0
102
RTVSPropertyOp14
 70
     2
102
RTVSPropertyOp15
 70
     0
102
RTVSPropertyOp16
 70
     0
102
RTVSPropertyOp17
 70
     0
102
RTVSPropertyOp18
 70
     0
102
RTVSPropertyOp19
 70
     0
102
RTVSPropertyOp20
 70
     0
102
RTVSPropertyOp21
 70
     0
102
RTVSPropertyOp22
 70
     0
102
RTVSPropertyOp23
 70
     0
102
RTVSPropertyOp24
 70
     0
102
RTVSPropertyOp25
 70
     0
102
RTVSPropertyOp26
 70
     0
102
RTVSPropertyOp27
 70
     0
  0
XRECORD
  5
1D09
102
{ACAD_REACTORS
330
1D08
102
}
330
1D08
100
AcDbXrecord
280
     1
102
RTVSPropertyOp0
 70
     1
102
RTVSPropertyOp1
 70
     1
102
RTVSPropertyOp2
 70
     1
102
RTVSPropertyOp3
 70
     1
102
RTVSPropertyOp4
 70
     1
102
RTVSPropertyOp5
 70
     1
102
RTVSPropertyOp6
 70
     1
102
RTVSPropertyOp7
 70
     1
102
RTVSPropertyOp8
 70
     1
102
RTVSPropertyOp9
 70
     1
102
RTVSPropertyOp10
 70
     1
102
RTVSPropertyOp11
 70
     1
102
RTVSPropertyOp12
 70
     1
102
RTVSPropertyOp13
 70
     1
102
RTVSPropertyOp14
 70
     1
102
RTVSPropertyOp15
 70
     1
102
RTVSPropertyOp16
 70
     1
102
RTVSPropertyOp17
 70
     1
102
RTVSPropertyOp18
 70
     1
102
RTVSPropertyOp19
 70
     1
102
RTVSPropertyOp20
 70
     1
102
RTVSPropertyOp21
 70
     1
102
RTVSPropertyOp22
 70
     1
102
RTVSPropertyOp23
 70
     1
102
RTVSPropertyOp24
 70
     1
102
RTVSPropertyOp25
 70
     1
102
RTVSPropertyOp26
 70
     1
102
RTVSPropertyOp27
 70
     1
  0
XRECORD
  5
1D0F
102
{ACAD_REACTORS
330
1D0E
102
}
330
1D0E
100
AcDbXrecord
280
     1
102
RTVSPropertyOp0
 70
     1
102
RTVSPropertyOp1
 70
     1
102
RTVSPropertyOp2
 70
     1
102
RTVSPropertyOp3
 70
     1
102
RTVSPropertyOp4
 70
     1
102
RTVSPropertyOp5
 70
     1
102
RTVSPropertyOp6
 70
     1
102
RTVSPropertyOp7
 70
     1
102
RTVSPropertyOp8
 70
     1
102
RTVSPropertyOp9
 70
     1
102
RTVSPropertyOp10
 70
     1
102
RTVSPropertyOp11
 70
     1
102
RTVSPropertyOp12
 70
     1
102
RTVSPropertyOp13
 70
     1
102
RTVSPropertyOp14
 70
     1
102
RTVSPropertyOp15
 70
     1
102
RTVSPropertyOp16
 70
     1
102
RTVSPropertyOp17
 70
     1
102
RTVSPropertyOp18
 70
     1
102
RTVSPropertyOp19
 70
     1
102
RTVSPropertyOp20
 70
     1
102
RTVSPropertyOp21
 70
     1
102
RTVSPropertyOp22
 70
     1
102
RTVSPropertyOp23
 70
     1
102
RTVSPropertyOp24
 70
     1
102
RTVSPropertyOp25
 70
     1
102
RTVSPropertyOp26
 70
     1
102
RTVSPropertyOp27
 70
     1
  0
ENDSEC
  0
EOF
